Song name
# A B C D E F G H I J K L M N O P Q R S T U V W X Y Z

Regina Spektor - Genius Next Door tab

GENIUS NEXT DOOR - REGINA SPEKTOR

Hello everyone, this is my first tab so I hope you like it!

CAPO on 1st FRET (all numbers are relative to fret)
The song is in 6/8, so when you fingerpick you should give it a waltzy feel. 
(emphasis on the down-beat, ex. 1 + + 2 + +)

VERSE (Repeat X4)
  Em	        Em	      Am            Am
e|-----------0-|-------------|---------0---|-------------|
B|---------0---|-0-----------|-------3---3-|-------------|
G|-------0-----|---0---------|-----2-------|-2---2-----0-|
D|-----2-------|-----2-------|---2---------|---2-----2---|
A|---2---------|-------2---2-|-0-----------|-------------|
E|-0-----------|---------3---|-------------|-------3-----|
 | 1 + + 2 + + | 1 + + 2 + + | 1 + + 2 + + | 1 + + 2 + + |
-->VERSE CONTINUED
  D w/ thumb on E-2	         G	        G
e|--------------|-----------2---|--------------|-------------|
B|----------3---|---------3---3-|-------0-3*-0-|-------------|
G|--------2---2-|---------------|-----0--------|-0-----------|
D|---0-4*-------|-4*-0-4*-------|---0----------|---0-----0---|
A|--------------|---------------|--------------|-------------|
E|-2------------|---------------|-3------------|-----3-2---2-|
 | 1 + +  2 + + | 1  + +  2 + + | 1 + + 2 +  + | 1 + + 2 + + |
*use your pinky

CHORUS (Repeat X2)
e|-------0---0-|---0---0---0-|-------0---0-|---0---0---0-|
B|-----1---1---|-1---1---1---|-----1---1---|-1---1---1---|
G|-------------|-------------|-------------|-------------|
D|---2---------|-------------|---2---------|-------------|
A|-0-----------|-------------|-------------|-------------|
E|-------------|-------------|-3-----------|-------------|
 | 1 + + 2 + + | 1 + + 2 + + | 1 + + 2 + + | 1 + + 2 + + |

e|-------0---0-|---0---0---0-|-------------|-------------|
B|-------------|-------------|-------3---3-|---3---3---3-|
G|-----3---3---|-3---3---3---|-----4---4---|-4---4---4---|
D|---2---------|-------------|---0---------|-------------|
A|-------------|-------------|-------------|-------------|
E|-2-----------|-------------|-3-----------|-------------|
 | 1 + + 2 + + | 1 + + 2 + + | 1 + + 2 + + | 1 + + 2 + + |
ON SECOND TIME PLAY THIS FOR LAST MEASURE
e|-------------|
B|-------3---3-|
G|-----4---4---|
D|---0---------|
A|-------------|
E|-2-----------|
 | 1 + + 2 + + |
Tap to rate this tab
# A B C D E F G H I J K L M N O P Q R S T U V W X Y Z