Song name
# A B C D E F G H I J K L M N O P Q R S T U V W X Y Z

Regina Spektor - Hero tab

Regina Spektor – Hero

Tuning: Drop D

I got bored so I arranged this song for guitar. I couldn’t be bothered to add 
lyrics or do the whole song, but you can put it all together with this.

E|----------------------------------------|
B|--5---5---5---5---5---5---3-------------|
G|--5---5---5---5---4---4---4-------------|
D|--7-----7-5-----5-5-----5-5-------------|
A|----------------------------------------|
D|----------------------------------------|

E|------------------------------------------|
B|--5---5---1---1---3---3---5---5---1---1---|
G|--5---5---2---2---4---4---5---5---2---2---|
D|--3-----3-0-----0-2-----2-3-----3-0-----0-|
A|------------------------------------------|
D|------------------------------------------|

E|---------------------------------------------------------|
B|--5---5---5---5---5---5---5---5---5---5---5---5---5---5--|
G|--5---5---5---5---5---5---5---5---5---5---5---5---5---5--|
D|---------------------------------------------------------|
A|--3---2---0-----0---------3---2---0-----0----------------|
D|------------------3-----3-----------------3--------------|

E|----------------------------------------|
B|--3-3-3-3-5-5-5-5-1-1-1-1-0-0-0-0-------|
G|--2-2-2-2-4-4-4-4-2-2-2-2-0-0-0-0-------|
D|----------------------------------------|
A|----------------------------------------|
D|--0_------------------------------------|

E|----------------------------------------|
B|--0-0-0-0-1-1-1-1-3-3-3-3-1-1-1-1-------|
G|--0-0-0-0-2-2-2-2-4-4-4-4-2-2-2-2-------|
D|----------------------------------------|
A|----------------------------------------|
D|--2_------------------------------------|

E|----------------------------------------|
B|----------------------------------------|
G|--2-2-2-2-4-4-4-4-5-5-5-5-4-4-4-4-------|
D|--3-3-3-3-5-5-5-5-7-7-7-7-5-5-5-5-------|
A|----------------------------------------|
D|--0_------------------------------------|

E|----------------------------------------|
B|--0-0-0-0-1-1-1-1-3_--------------------|
G|--0-0-0-0-2-2-2-2-4_--------------------|
D|----------------------------------------|
A|----------------------------------------|
D|--2_------------------------------------|
Tap to rate this tab
 
# A B C D E F G H I J K L M N O P Q R S T U V W X Y Z