Regina Spektor - Folding Chair tab

Regina Spektor - folding chair (1 guitar)

F C Am Dm Dsus
1 0 0  1  3
1 1 1  3  3
2 0 2  2  2
3 2 2  0  0
3 3 0  x  x
1 X x  x  x


0:00 [C CAm AmDm (Dsus) >Dm]x2 

0:16
rhythm
e|---0---0---0---0---0---0---0---0---|
B|---1---1---1---1---1---1---0---0---|
G|---0---0---0---0---0---0---0---0---|
D|-----------------------------------|
A|-----------------------------------|
E|-----------------------------------|x2


0:24
verse
e|---0---0---0---0---0---0---0---0---|
B|---1---1---1---1---1---1---0---0---|
G|---0---0---0---0---0---0---0---0---|
D|-----------------------------------|
A|-3-------0-------------------------|
E|-----------------1-------3---------|x6

0:46      /podria ser la parte mas dificil de dominar
verse 2    /the hardest part
e|---0---0---0---0---0---0---0---0---|
B|---1---1---1---1---1---1---0---0---|
G|---0---0---0---0---0---0---0---0---|
D|-----------------------------------|
A|-3---3-2-0---0---------0-------2---|
E|---------------3-1---1---3---3-----|x8



1:16
chords
F G Am C - F G C C x2

1:31
verso
e|---0---0---0---0---0---0---0---0---|
B|---1---1---1---1---1---1---0---0---|
G|---0---0---0---0---0---0---0---0---|
D|-----------------------------------|
A|-3-------0-------------------------|
E|-----------------1-------3---------|x8

2:00
cords
F G Am C - F G C C x2

2:15
break
G C Dm C G C Dm Dsus

2:33
rhythm
e|---0---0---0---0---0---0---0---0---|
B|---1---1---1---1---1---1---0---0---|
G|---0---0---0---0---0---0---0---0---|
D|-----------------------------------|
A|-----------------------------------|
E|-----------------------------------|x2 

2:40
verse
e|---0---0---0---0---0---0---0---0---|
B|---1---1---1---1---1---1---0---0---|
G|---0---0---0---0---0---0---0---0---|
D|-----------------------------------|
A|-3-------0-------------------------|
E|-----------------1-------3---------|x6

2:47
verse
e|---0---0---0---0---0---0---0---0---|
B|---1---1---1---1---1---1---0---0---|
G|---0---0---0---0---0---0---0---0---|
D|-----------------------------------|
A|-3---3-2-0---0---------0-------2---|
E|---------------3-1---1---3---3-----|x7

3:13
chords
F G Am C - F G C C x2

Jorge Alberto Benavides Ojinaga
Twitter @Leprincez
Tap to rate this tab
 
# A B C D E F G H I J K L M N O P Q R S T U V W X Y Z