Song name
# A B C D E F G H I J K L M N O P Q R S T U V W X Y Z

Regina Spektor - The Call tab

CAPO = 3


  [G]               [D]               [Em]              [C]
e-----------------|-----------------|-----------3-1-3-|-----------------|
B-0-0---0---------|-0---------0-----|-----------------|-----------------|
G-----------2-0---|---2---2-----2---|-0-0---0---------|-0---------0-----|
D---------0-----0-|-----0---------0-|-----2-----------|-------0h2---2-0-|
A-----2-----------|-----------------|-2-------2-------|-3---------------|
E-3---------------|-2-------2-------|-----------------|-----------------|

Verse 1:
It started out as a feeling      which then grew into a hope

[G]               [D]               [Em]              [C]
------------------|-----------------|-----------3-1-3-|-----------------|
--0-0---0---------|-------0---------|-----------------|-----0-----------|
------------2-0---|-2-2-------2-2---|-0-0---0---------|-0-----0---0-----|
------------------|-----0-----------|-----------------|---2-----2---2---|
------2---------2-|-----------------|-2---2---2-------|-3---------------|
--3-------3-------|-2-------2-------|-----------------|-----------------|

Which then turned into a quiet thought; Which then turned into a quiet word

[D]                [D7]              [G]               [C/Em?]
------------------|-----------------|-----------3-3---|---------3---2---|
------------0-----|-1-1-----1--0----|-0-0---0---------|-5-3-1-----------|
--2-2---2-----2---|------2----------|-----------------|-----------------|
--0---0---0-------|-0------------0--|-----------------|-----------------|
------------------|-----------------|-----------------|-3---------------|
------------------|-----------------|-3---------2-----|-----------------|

And then that word grew louder and louder;'Til it was a battle cry; I'll come back

 [C]               [D]       [Em]     [G]              [D]       [D7]
--0---------------|-----------------|----3------------|-----------------|
------------1---0-|-----0-1---0-----|--0------0----0--|-------------1---|
------0-----------|-2---------------|-----------2-----|-2---2-----2---2-|
----2-------------|-0---------------|-----------------|-0-0---0---------|
--3---------3-----|-----------2-----|-----------------|-----------------|
------------------|-----------------|--3--------2-----|-----------------|

When you call me                     No need to say goodbye


[last line changes after first verse to:]

 [C]               [D]       [Em]     [G]             [C/Em?]              end: [G]
--0---------------|-----------------|----3------------|-----------------|
------------1---0-|-----0-1---0-----|--0------0----0--|-----0-----------|
------0-----------|-2---------------|-----------2-----|-0-----0---0-----|
----2-------2-----|-0---------------|-----------------|---2-----2---2---|
--3---------------|-----------2-----|-----------------|-3---------------|
------------------|-----------------|--3--------2-----|-----------------|
Tap to rate this tab
 
# A B C D E F G H I J K L M N O P Q R S T U V W X Y Z