Song name
# A B C D E F G H I J K L M N O P Q R S T U V W X Y Z

Regina Spektor - Back Of A Truck tab

-------------------------------------------------------------------------------
			BACK OF A TRUCK  - Regina Spektor
-------------------------------------------------------------------------------
Tabbed by: minnaow
Email: minnaow@gmail.com

Tuning: Standard

Intro & Pre-Verse
e|------0--00------+12+------------0--00-------+5+--|
B|------0--00------+12+------------0--00-------+5+--|
G|------9--99----------------------9--99------------|
D|------9--99----------------------9--99------------|
A|------7--77----------------------7--77------------|
E|0--00-------0-00-----------0--00-------0--00------|

Verse:
  E          B          D         A
e|------0-00-----------------------------------|
B|------0-00-----------------------------------|
G|------9-99------------7-77-7-77--------------|
D|------9-99-9-99-------7-77-7-77-7-77-7-7-7---|
A|------7-77-6-66---6---5-55-5-55-4-44-4-5-6---|
E|-0-00------7-77-7---7-----------5-55---------|

  E          B          D         A
e|------0-00-----------------------------------|
B|------0-00-----------------------------------|
G|------9-99------------7-77-7-77--------------|
D|------9-99-9-99-------7-77-7-77-7-77-7-7-7---|
A|------7-77-6-66---6---5-55-5-55-4-44-4-5-4---|
E|-0-00------7-77-7---7-----------5-55---------|

Chorus

C // E // C // G B
C // E // C // G B

3rd Verse Changes it up a bit, it's the D form, the A form, and then the big open E form twice.

The rest of the song is just either the standard verse bit or the chorus bit.
Pretty simple song, and there's plenty of room to embellish.  Hope you guys enjoy 
playing the song, I know I do!
************************************

| /   slide up
| \   slide down
| h   hammer-on
| p   pull-off
| ~   vibrato
| +   harmonic
| x   Mute note
| b   Bend
| pb  Pre-bend
| br  Bend release
| pbr Pre-bend release
| brb Bend release bend

************************************
Tap to rate this tab
 
# A B C D E F G H I J K L M N O P Q R S T U V W X Y Z