Regina Spektor - Consequence Of Sounds tab

Tabbed by: Hannah
Email: hannahskillman@yahoo.com

Tuning:Standard

Intro & Verse:

e|---------------------------------------------------------|
B|---------------------------------------------------------|
G|---------------------------------------------------------|
D|--0------------------------------------------------------|
A|---------0-----------------------------------------------|
E|-----------------0--------7------------------------------|


Chorus: 

e|--------------------------------------------------------------------------|
B|---1----3----5----6----8----8-----6----8----8----6----5-------------------|
G|--------------------------------------------------------------------------|
D|--------------------------------------------------------------------------|
A|---3----5----7----8----10----10---8----10---10---8-----7------------------|
E|--------------------------------------------------------------------------|
Tap to rate this tab
 
# A B C D E F G H I J K L M N O P Q R S T U V W X Y Z