Song name
# A B C D E F G H I J K L M N O P Q R S T U V W X Y Z

Regina Spektor - Eet tab

-------------------------------------------------------------------------------
                             Eet - Regina Spektor
-------------------------------------------------------------------------------
Tabbed by:ramblingman13
E-mail:ramblingman13@yahoo.co.uk

Tuning:Standard (Capo 1)

I love Regina Spektor and I love this song, it's like a song based on my life. I love it
sooo much that I wanted to produce a version of the song close enough to the original
piano version but played on a guitar. This entire tab is ear transcribed and should be 
played on CAPO 1. Chords have also been included so the tab is less confusing. Any problems
with the tab, please don't hesitate to message below or email me. I hope you enjoy 
learning this tab as much as I have enjoyed making it :) x
PS: Read below for the full song with lyrics and listen to the original song for the 
correct timings.

Intro+Verses: Play the below part of the tab TWICE without singing for the intro and
then repeat whilst singing till you reach the chorus.
 Am               G               C               F
e|-----------------------------------------------------------------------------|
B|----1-----1---1-----0-----0---0-----1-----1---1-----1-----1---1--------------|
G|----2-----2---2-----0-----0---0-----0-----0---0-----2-----2---2--------------|
D|-----------------------------------------------------------------------------|
A|0-------0---0-------------------3-------3---3---3-------3---3----------------|
E|----------------0-------0---0------------------------------------------------|

Chorus: Repeat TWICE.
 F                C               G
e|---------------------------------------------------------------------------|
B|----1-----1---1-----1-----1---1-----0-----0---0-----0-----0----------------|
G|----2-----2---2-----0-----0---0-----0-----0---0-----0-----0----------------|
D|---------------------------------------------------------------------------|
A|3-------3---3---3-------3---3----------------------------------------------|
E|--------------------------------0-------0---0---0-------0------------------|

Instrumental: Repeat TWICE.
 C
e|---------------------------------------------------------------------------|
B|----1-----1---1-----1-----1---1-----1-----1---1-----1-----1---1------------|
G|----0-----0---0-----0-----0---0-----0-----0---0-----0-----0---0------------|
D|---------------------------------------------------------------------------|
A|3-------3---3---3-------3---3---3-------3---3---3-------3---3--------------|
E|---------------------------------------------------------------------------|
 F
e|------------------------------------------------------------------------------|
B|----1-----1---1-----1-----1---1-----1-----1---1-----1-----1---1---------------|
G|----2-----2---2-----2-----2---2-----2-----2---2-----2-----2---2---------------|
D|------------------------------------------------------------------------------|
A|3-------3---3---3-------3---3---3-------3---3---3-------3---3---3-------------|
E|------------------------------------------------------------------------------|

LYRICS:

It's like forgetting the words to your favorite song
You can't believe it
You were always singing along
It was so easy and the words so sweet
You can't remember
You try to feel the beat

Eeeeeeeet, eet, eet, eet
Eeeeeeeet, eet, eet, eet

You spent half of your life trying to fall behind
You're using your headphones to drown out your mind
It was so easy, and the words so sweet
You can't remember
You try to move your feet
Eeeeeeeet, eet, eet, eet
Eeeeeeeet, eet, eet, eet

Someone's deciding whether or not to steal
He opens the window just to feel the chill
He hears that outside a small boy just starting to cry
'Cause it's his turn but his brother won't let him try

It's like forgetting the words to your favorite song
You can't believe it
You were always singing along
It was so easy and the words so sweet
You can't remember
You try to move your feet

It was so easy and the words so sweet
You can't remember, you try to feel the beat
Tap to rate this tab
# A B C D E F G H I J K L M N O P Q R S T U V W X Y Z