Song name
# A B C D E F G H I J K L M N O P Q R S T U V W X Y Z

Regina Spektor - Flowers tab

The tuning for this song is EbADGBE. So like standard, but the low E is tuned down a half-step.
Requires a liiittle bit of stretching, but I found this to be the most comfortable way 
to play the song.

I left out the outro parts because I'd have to drop the low E string down to C, which
would make the song much less comfortable to play. Maybe the ending could be a place to
improvise! If anyone comes up with another arrangement that allows for one to 
comfortably play the WHOLE song, I would really love to see it!

Contact me at marcelluscorpus@gmail.com




INTRO
|------------------------------------------|
|------------------------------------------|
|----3-3-3----5-5-5----3-3-3----5-5-5------|
|---5-5-5-5--6-6-6-6--5-5-5-5-6-6-6-6------|
|--3--------3--------3--------3------------|
|------------------------------------------|

|------------------------------------------|
|------------------------------------------|
|----3-3-3----5-5-5----3-3-3----5-5-5------|
|---5-5-5-5--6-6-6-6--5-5-5-5--6-6-6-6-----|
|------------------------------------------|
|--2--------5--------2--------5------------|

|---------------------------------------------------------------|
|---------------------------------------------------------------|
|----3----3----5----5----3-3-3----5-5-5-----3-3-3----5-5-5------|
|---5-5--5-5--6-6--6-6--5-5-5-5--6-6-6-6--5-5-5-5--6-6-6-6------|
|--3--------------------3--------3------------------------------|
|-------4----5----2-----------------------2--------5------------|

|--------------------------------|
|--------------------------------|
|----3-3-3----5-5-5-5-5-5-5------|
|---5-5-5-5--6-6-6-6-6-6-6-6-----|
|--------------------------------|
|--2--------5--------------------|

VERSE 1
+ Repeat 2x
|-------------------------------------------|
|-------------------------------------------|
|----3-3-3----5-5-5----3-3-3----5-5-5-------|
|---5-5-5-5--6-6-6-6--5-5-5-5--6-6-6-6------|
|--3--------3--------3--------3-------------|
|-------------------------------------------|

|-------------------------------------------|
|-------------------------------------------|
|----3-3-3----5-5-5----3-3-3----5-5-5-------|
|---5-5-5-5--6-6-6-6--5-5-5-5--6-6-6-6------|
|-------------------------------------------|
|--2--------5--------2--------5-------------|

CHORUS (It sounds funny, but it's right. I promise.)
+ Repeat 3x

|-----------------------------------------------|
|-----------------------------------------------|
|-----------------------------------------------|
|----6-6-6----6-6-6----6-6-6------6--6--6-------|
|---8-8-8-8--8-8-8-8--8-8-8-8--10-10-10-10------|
|--7--------5--------4---------0----------------|

|------------------------------------------|
|------------------------------------------|
|----5-5-5----5-5-5----5-5-5----4-4-4------|
|---6-6-6-6--5-5-5-5--6-6-6-6--3-3-3-3-----|
|-----------------------------3------------|
|--5--------4--------2---------------------|

INTERLUDE

|------------------------------------------|
|------------------------------------------|
|----3-3-3----5-5-5----3-3-3----5-5-5------|
|---5-5-5-5--6-6-6-6--5-5-5-5-6-6-6-6------|
|--3--------3--------3--------3------------|
|------------------------------------------|

|---------------------------------------------------|
|---------------------------------------------------|
|----3-3-3----5-5-5----3-3-3----5-5-5-5-5-5-5-------|
|---5-5-5-5--6-6-6-6--5-5-5-5--6-6-6-6-6-6-6-6------|
|---------------------------------------------------|
|--2--------5--------2--------5---------------------|

VERSE 2 (slight difference from verse 1)

|-------------------------------------------|
|-------------------------------------------|
|----3-3-3----5-5-5----3-3-3----5-5-5-------|
|---5-5-5-5--6-6-6-6--5-5-5-5--6-6-6-6------|
|--3--------3--------3--------3-------------|
|-------------------------------------------|

|---------------------------------------------|
|---------------------------------------------|
|----3-3-3----5-5-5----3-3-3----5-5-5-5-5-----|
|---5-5-5-5--6-6-6-6--5-5-5-5--6-6-6-6-6-6----|
|---------------------------------------------|
|--2--------5---------2--------5--------------|

|-------------------------------------------|
|-------------------------------------------|
|----3-3-3----5-5-5----3-3-3----5-5-5-------|
|---5-5-5-5--6-6-6-6--5-5-5-5--6-6-6-6------|
|--3--------3--------3--------3-------------|
|-------------------------------------------|

|-------------------------------------------|
|-------------------------------------------|
|----3-3-3----5-5-5----3-3-3----5-5-5-------|
|---5-5-5-5--6-6-6-6--5-5-5-5--6-6-6-6------|
|-------------------------------------------|
|--2--------5--------2--------5-------------|

CHORUS
+ Repeat 4x

|-----------------------------------------------|
|-----------------------------------------------|
|-----------------------------------------------|
|----6-6-6----6-6-6----6-6-6------6--6--6-------|
|---8-8-8-8--8-8-8-8--8-8-8-8--10-10-10-10------|
|--7--------5--------4---------0----------------|

|------------------------------------------|
|------------------------------------------|
|----5-5-5----5-5-5----5-5-5----4-4-4------|
|---6-6-6-6--5-5-5-5--6-6-6-6--3-3-3-3-----|
|-----------------------------3------------|
|--5--------4--------2---------------------|

OUTRO
Omitted this. See the top if you haven't already
Tap to rate this tab
# A B C D E F G H I J K L M N O P Q R S T U V W X Y Z