Guitaretab - guitar tabs
Song name
# A B C D E F G H I J K L M N O P Q R S T U V W X Y Z

Regina Spektor - That Time tab

--------------------------------------------------------------------------
			 That Time - Regina Spektor
--------------------------------------------------------------------------

Tabbed by: guyalexanderr
Email: guy-alexander@hotmail.co.uk

Tuning: standard

The other tabs for this song wernt great,
so here's mine
This is from the version on her album



repeated throughout 0:03-0:35
e|---------------------------------------------------------|
B|---------------------------------------------------------|
G|---------------------------------------------------------|
D|---------------------------------------------------------|
A|---------------------------------------------------------|
E|--0-0-0-444-4-4--0-0-0-444-4-4--0-0-0-444-4-4--5-5-5--4--|


0:36-0:41
e|-----------------------------------------------|
B|-----------------------------------------------|
G|-----------------------------------------------|
D|-----------------------------------------------|
A|-----------------------------------------------|
E|--0-0-0-444-4-4--0-0-0-444-4-4--0-0-0-444-4-4--|

[ Tab from: http://www.guitaretab.com/r/regina-spektor/69853.html ]
repeat throughout 0:42-1:48
e|---------------------------------------------------------|
B|---------------------------------------------------------|
G|---------------------------------------------------------|
D|---------------------------------------------------------|
A|---------------------------------------------------------|
E|--0-0-0-444-4-4--0-0-0-444-4-4--0-0-0-444-4-4--5-5-5--4--|


1:49-1:56
e|----------------------------------------------------------------|
B|----------------------------------------------------------------|
G|----------------------------------------------------------------|
D|----------------------------------------------------------------|
A|----------------------------------------------------------------|
E|--0-0-0-444-4-4--0-0-0-444-4-4--5-5-5-5-5-5-5-5-5-5-5-5-5-5-5~--|

repeat throughout 1:58-2:24
e|---------------------------------------------------------|
B|---------------------------------------------------------|
G|---------------------------------------------------------|
D|---------------------------------------------------------|
A|---------------------------------------------------------|
E|--0-0-0-444-4-4--0-0-0-444-4-4--0-0-0-444-4-4--5-5-5--4--|

2:25-2:36
e|---------------------------------------------------------------------------|
B|---------------------------------------------------------------------------|
G|---------------------------------------------------------------------------|
D|---------------------------------------------------------------------------|
A|---------------------------------------------------------------------------|
E|--0-0-0-444-4-4--0-0-0-444-4-4--0-0-0-444-4-4--h4p5-h4p5-h4p5p4p5p4--2--0--|




Related for That Time tab
Advertisement will be closed in 10 seconds