Song name
# A B C D E F G H I J K L M N O P Q R S T U V W X Y Z

Regina Spektor - Back Of A Truck tab

REGINA SPEKTOR - BACK OF A TRUCK

Intro;

--x-------x----10h11-|
--x--3h4--x----------|
--x-------8----------|
--8-------8----------|
--6-------6----------|
--x-------x----------|

Verse;

--x------------------------------x--|
--x------------------------------x--|
--x------------------------------x--|
--8------------------------------8--|
--6------------------------------5--|
--x------------------------------x--|

"She lifted the..."         "...in her monumental arms..."

--x------------------------------x--|
--x------------------------------x--|
--x------------------------------x--|
--6------------------------------6--|
--4------------------------------3--|
--x------------------------------x--|

"She was the mother..."      "...Carry on luggage charms."

Repeat until:

--x-------x--|
--x-------x--|
--x-------x--|
--4-------8--|
--2-------6--|
--x-------x--|

"Back for more"

--x----------------x-------x-------10h11----|
--x----------------x-------x---3h4----------|
--x----------------x-------x----------------|
--4----------------8-------8----------------|
--4----------------8-------6----------------|
--2----------------6-------x----------------|

"How late..."          "...very late"

Also, if you take it down half a step you can play most of it as
(verse)
D, A, C, G
(chorus)
Bb, D
G, A, D

which is easier for people who like open chords


Tabbed by Alexro. I'm sure you can get the lyrics on google.
alexbaughen@hotmail.com
Hi Will & Tom - look, I tabbed a song :D
Tap to rate this tab
# A B C D E F G H I J K L M N O P Q R S T U V W X Y Z