Song name
# A B C D E F G H I J K L M N O P Q R S T U V W X Y Z

Regina Spektor - Consequence Of Sounds tab

consequence of sounds by regina spektor from songs.

piano arranged for guitar.

intro (0:01)
Eb|--------------------|
Bb|--------------------|
Gb|--------------------|  (x2)
Db|--------------------|
Ab|--------------------|
Eb|---10---5---0---7---|
      C#   G#  D#  A#
      Db   Ab  Eb  Bb

verse (0:12)
Eb|--------------------|
Bb|--------------------|
Gb|--------------------|  (x16)  lyrics start here 
Db|--------------------|         (my rhyme ain't good just yet...)
Ab|--------------------|
Eb|---10---5---0---7---|
      C#   G#  D#  A#
      Db   Ab  Eb  Bb

chorus (1:44)
Eb|------------------------------------------------------|
Bb|------------------------------------------------------|
Gb|------------------------------------------------------|  (x2)
Db|------------------------------------------------------|
Ab|------------------------------------------------------|
Eb|--9--11--13--14--16---16---14--16--14---13------11----|
     C  D   E   F   G    G    F   G   F    E       * play first time only

verse (1:56)
Eb|--------------------|
Bb|--------------------|
Gb|--------------------|  (x19) (dum da da dum da da da dum dum...)
Db|--------------------|
Ab|--------------------|
Eb|---10---5---0---7---|
      C#   G#  D#  A#
      Db   Ab  Eb  Bb

chorus (3:48)
Eb|------------------------------------------------------|
Bb|------------------------------------------------------|
Gb|------------------------------------------------------|  (x2)
Db|------------------------------------------------------|
Ab|------------------------------------------------------|
Eb|--9--11--13--14--16---16---14--16--14---13------11----|
     C  D   E   F   G    G    F   G   F    E       D

verse (4:01)
Eb|--------------------|
Bb|--------------------|
Gb|--------------------|  (x19) (um da da dum cha cha dum da...)
Db|--------------------|
Ab|--------------------|
Eb|---10---5---0---7---|
      C#   G#  D#  A#
      Db   Ab  Eb  Bb

end (5:06)
Eb|--------|
Bb|--------|
Gb|--------|
Db|--------|
Ab|--------|
Eb|---10---|
      C#
      Db
Tap to rate this tab
# A B C D E F G H I J K L M N O P Q R S T U V W X Y Z