Song name
# A B C D E F G H I J K L M N O P Q R S T U V W X Y Z

Regina Spektor - Edit tab

Highlighted       Show chord diagrams
A Great song from Regina Spektor
Edit
rythem - 
11/16

basicly, it's contains only 3 chords - C, G#, Cadd13

this is the way you should pick the chords.
Fig 1 :
   C         G#        C         G#
e|---------|---------|---------|---------|
B|---------|---------|---------|---------|
G|-5--5--5-|-5--5--5-|-5--5--5-|-5--5--5-|
D|-5--5--5-|-6--6--6-|-5--5--5-|-6--6--6-|
A|-3--3--3-|-3--3--3-|-3--3--3-|-3--3--3-|
E|---------|---------|---------|---------|


Fig 2 :
   C         G#        Cadd13    G#
e|---------|---------|---------|---------|
B|---------|---------|---------|---------|
G|-5--5--5-|-5--5--5-|-5--5--5-|-5--5--5-|
D|-5--5--5-|-6--6--6-|-7--7--7-|-6--6--6-|
A|-3--3--3-|-3--3--3-|-3--3--3-|-3--3--3-|
E|---------|---------|---------|---------|


intro - C G# *4

C                     G# 
White lines on your mind
C
Keep it steady
     G# 
You were never ready for the lies

C                     G# 
White lines on your mind
C
Keep it steady
      G#
You were never ready for the lies

C                        G# 
You don't have no doctor Robert
Cadd13                    G#
You don't have no uncle Albert
C                        G# 
You don't even have good credit
Cadd13                    G# 
You can write but you can't edit

You don't have no doctor Robert
You don't have no uncle Albert
You don't even have good credit
You can write but you can't edit
Edit, edit, edit, edit, edit, edit...

White lines on your mind
Keep it steady
You were never ready for the lies

You don't have no doctor Robert
You don't have no uncle Albert
You don't even have good credit
You can write but you can't edit
Edit, edit, edit, edit, edit, edit...


That's it. very simple...

Ariel
Tap to rate this tab
 
# A B C D E F G H I J K L M N O P Q R S T U V W X Y Z