Song name
# A B C D E F G H I J K L M N O P Q R S T U V W X Y Z

Regina Spektor - Septera tab

-------------------------------------------------------------------------------
			     Septera - Regina Spektor
-------------------------------------------------------------------------------
Tabbed by:Rackan

Tuning: Standard

Intro:

e|---------------------------------------------------------------------------|
B|-7h8------4-----4---7h8--------13--------------6---------------------------|
G|-----6--------------------4---------4--------------------------------------|
D|--------3-----------------------------------5------------------------------|
A|-------------4-------------------------5-----------------------------------|
E|---------------------------------------------------------------------------|

Vers:

e|---6---------6-----------4--------------------------------------------------------|
B|-----4---------------4----------4--2-----------3----------------------------------|
G|----------------6---6---------------------5---------------------------------------|
D|----------6-----6----------3-------------4----------------------------------------|
A|----------------------------------------------------------------------------------|
E|----------------------------------------------------------------------------------|

e|---6---------6-----------4--------------------------------------------------------|
B|-----4---------------4----------4--2-----------3----------------------------------|
G|----------------6---6---------------------5---------------------------------------|
D|----------6-----6----------3-------------4----------------------------------------|
A|----------------------------------------------------------------------------------|
E|----------------------------------------------------------------------------------|

e|---6---------6-----------4--------------------------------------------------------|
B|-----4---------------4----------4--2-----------3----------------------------------|
G|----------------6---6---------------------5---------------------------------------|
D|----------6-----6----------3-------------4----------------------------------------|
A|----------------------------------------------------------------------------------|
E|----------------------------------------------------------------------------------|

Chorus:

e|----------------------------------5------------------------------------------|
B|---3----3---4h8--------------4--------4-----3--------------------------------|
G|---3----4------------------4-----4-------------------------------------------|
D|---4----4--------8--8---------------------2-----2----------------------------|
A|-----------------9--8-------------------7------------------------------------|
E|-----------------9--9--------------------------------------------------------|

Outro:

e|--2-------------------------------------------------------------------------|x4
B|----3-----3------------------------6-----4----------------------------------|
G|------4---2---5---3------3h6------------------------------------------------|
D|--------------6---2------------4------4-----6-------------------------------|
A|--------------6---3---------------------------------------------------------|
E|----------------------------------------------------------------------------|

Thats it for me. I know this is 100% correct!
Tap to rate this tab
# A B C D E F G H I J K L M N O P Q R S T U V W X Y Z