Guitaretab - guitar tabs
Song name
# A B C D E F G H I J K L M N O P Q R S T U V W X Y Z

Regine Velasquez - Tuwing Umuulan At Kapiling Ka tab

____________________________________________________________________________
***************************************************************************
Title: Tuwing Umuulan At Kapiling Ka	
Artist: Regine Velasquez
Tabbed by: Reynaldo R. Ramos
e-mail: rey_rrr20@yahoo.com
Tuning: Standard Tuning[original Key is 1 step higher (F) ]
        You may use capo on 1st fret   
Date: July 19, 2004
____________________________________________________________________________
****************************************************************************

Note: original key is F so you can use capo on first fret or you can play it in
lower tune just what specified in the tab..thnks for my friend CATCAT because of
her i finished this accurately....gudlack friend!


Intro: E-Asus2-B-Asus2- (2x)


    E              Asus2          B              Asus2       
e|--------------0--------------0--------------0------------------|
B|--------------------------0----------------------------0-------|
G|-----------1-----------2-----------------6---------2-----2-----|
D|--------2-----------2-----------------9----------2---2-----2---|
A|-----2-----------0-----------------9-----------0-------------0-|
E|--0-----------------------------7------------------------------|
       Lalala     la la la...     la ... .. ..    
    E              Asus2          B               Asus2     
e|--------------0--------------0--------------0----0--|
B|--------------------------0----------------------0--|
G|-----------1-----------2-----------------6-------2--|
D|--------2-----------2-----------------9----------2--|
A|-----2-----------0-----------------9-------------0--|
E|--0-----------------------------7-------------------|

Stanza I:
       Pagmasdan ang ulan   unti  unting   pumapatak
   E             Asus2       B              E     
e|----------0----------------------------0--------------0--|
B|------------------------0-----------------------0--------|
G|---------------------2--------------8---------1----------|
D|-------2----------2--------------9----------2-------2----|
A|----2----------0--------------9-------------------2------|
E|-0-------------------------7--------------0--------------|
     Sa mga  halama't  mga       bulaklak...
   C#m7           F#sus2         B9              B
e|--------------------------------------------------|
B|-------5--------------------------------2------4--|
G|-----4---4------------4-3------------2-----2---4--|
D|---6-------6--------4-----2-------4------------4--|
A|-4-----------4----4------------2---------------2--|
E|----------------2---------------------------------|
    Pagmasdan ang   dilim unti unting   bumabalot 
    AM7             G#m7    AM7           G#m7
e|--------4-------2---------------4-------4h2---------------|
B|------2-------0---------------2-----2------------------5--|
G|----2-------1----------4----2---------2-----4/6------4----|
D|---------------------4----------------------6/8----4------|
A|--0-----------------------0-------------------------------|
E|-------------------4-----------------------------4--------|
      Sa buong paligid tuwing umuulan ...
   C#m7            F#sus2       B9               B, Asus2, B   
e|----------------------------------------------------0-2-|
B|-------5-----------------------------2---------4----0-0-|
G|-----4---4------------4-3----------2-----2--------------|
D|---6----------------4------------4---------4------------|
A|-4----------------4------------2---------------2----0-2-|
E|----------------2---------------------------------------|

Stanza 2:
       Kasabay    ng ulan      bumubuhos ang iyong ganda    
   E              Asus2          B             E
e|----------------------------0--------------0-----------------|
B|-------------0-----------0-----------------------------0-----|
G|----------1-----------2-----------------8----------1-2-----1-|
D|-------2-----------2-----------------9-----------2-------2---|
A|----2-----------0-----------------9------------2-------------|
E|-0-----------------------------7-------------0---------------|          
  Kasabay rin ng hanging     kumakanta   
   C#m7           F#sus2         B9             B
e|----------------------------------------------------------|
B|-------5-----------------------------2--------------2h4-2-|
G|-----4---4------------4-3----------2---2----------2-------|
D|---6-------6--------4-----4------4-------4------4---------|
A|-4-----------4----4---------4--2-----------2--2-----2-----|
E|----------------2-----------------------------------------|
     Maari bang  huwag kana Sa piling ko'y lumisan pa
    AM7             G#m7    AM7           G#m7
e|--------4-------2---------------4-------4h2---------------|
B|------2-------0---------------2-----2------------------5--|
G|----2-------1----------4----2---------2-----4/6------4----|
D|---------------------4----------------------6/8----4------|
A|--0-----------------------0-------------------------------|
E|-------------------4-----------------------------4--------|
Hanggang ang hangi't ulay tumila pa
   C#m7            F#sus2          B9              B, Asus2, B   
e|------------------------------------------------------0-2-|
B|-------5-------------------------------2---------4----0-0-|
G|-----4---4-------------4-3-----------2-----2-----4--------|
D|---6-------6---------4-----4-------4---------4------------|
A|-4-----------4-----4---------4---2---------------2----0-2-|
E|-----------------2----------------------------------------|

Chorus I:
   Buhos   na  ulan  aking   mundo'y lunuring tuluyan
   E              Asus2          B         E      A  
e|----------------------------0--------2-5-4-2--------|
B|-------------0-----------0---------2---2-2-2-5--2---|
G|----------1-----------2----------4-----------4--2---|
D|-------2-----------2--------------------------------|
A|----2-----------0--------------2----------------0---|
E|-0--------------------------------------------------|
    Tulad ng pag agos mo   Di papipigil ang puso
   E              Asus2         G#sus    C#m7  
e|----------------------------0-----------------4-------4-|
B|-------------0-----------0--------5-4----5--7-------5---|
G|----------1-----------2--------6------------------4-----|
D|-------2-----------2-----------6--6---------------------|
A|----2-----------0--------------6-------4--------4-------|
E|-0-----------------------------4------------------------|
     Nagliliyab                Pag-ibig ko'y
   Bm7             A          G#m7
e|---------------------------0-------------------|
B|-------3-------3-------2-----------------7-----|
G|-----2-------2-------2----------------4--------|
D|---4-------4-------2---------------4-----------|
A|-2-------2-------0--------------6--------------|
E|-----------------------------4-----------------|
   Umaapaw       damdamin ko'y humihiyaw        sa tuwa    
   A             G#m7          A              G#m7       
e|----------------------------------------------------------|
B|---------5----------------------------5-------------7-----|
G|------6-----6-----------4----------6-----6-------4-----4--|
D|---7-----------------4-----4----7-------------4-----------|
A|------------------6---------------------------------------|
E|-5-------------4-------------5--------------4-------------|
                      Tuwing    umuulan  at kapiling 
    Bhold C#hold     F#m                Asus2       
e|--------------------------------------0------------|
B|--4-----6-------------------0---------0------------|
G|--4-----6-------------2--------2------2------------|
D|--4-----6----------4-----4------------2------------|
A|--2-----4-----------------------------0------------|
E|---------------------------------------------------|
   Ka ...                              
   E              Asus2
e|----------------------------0--------0--------------|
B|-------------0-----------0-------2-------2----------|
G|----------1-----------2-----------------------------|
D|-------2-----------2------------------------------2-|
A|----2-----------0----------------2---0---2----2h4---|
E|-0--------------------------------------------------|

Stanza III:
      Pagmasdan  ang ulan      unti unting 
   E              Asus2          B   
e|----------------------------0--------------0----|
B|-------------0-----------0----------------------|
G|----------1-----------2-----------------8-------|
D|-------2-----------2-----------------9----------|
A|----2-----------0-----------------9-------------|
E|-0-----------------------------7----------------|

  Tumitila         Ikaw ri'y  magapapaalam na    
   E               C#m7       F#sus2       B9             B 
e|--------------------------------------------------------------|
B|-----------------------5-----------------------2--------2h4-2-|
G|-------1---2---------4------------4-3--------2--------2-------|
D|-----2---2---2-----6------------4-----2----4--------4---------|
A|---2-------------4------------4----------2--------2-----2-----|
E|-0--------------------------2---------------------------------|
[ Tab from: http://www.guitaretab.com/r/regine-velasquez/51034.html ]
Maari bang  huwag kana Sa piling ko'y lumisan pa
    AM7             G#m7    AM7           G#m7
e|--------4-------2---------------4-------4h2---------------|
B|------2-------0---------------2-----2---------------------|
G|----2-------1----------4----2---------2-----4/6--------4--|
D|---------------------4----------------------6/8------4----|
A|--0-----------------------0------------------------6------|
E|-------------------4-----------------------------4--------|
  Sakbibi  ka't   ulan lamang ang saksi...   
   C#m7            F#sus2          B9       B     Asus2, B   
e|-------4-------------------------------------------0--2-|
B|-----5---------------------------------2----------------|
G|---6-------------------4-3-----------2--------4---------|
D|---------------------4-----4-------4--------4-----------|
A|-4-----------------4-------------2--------2--------0--2-|
E|-----------------2--------------------------------------|

Chorus 2:
  Minsan pa ulan bumuhos ka huwag nang tumigil pa
   E          Asus2     B        E          A   
e|------------------0---------------------------|
B|------------------0---------4--------0----2---|
G|-------1--------2---------4--------1------2---|
D|-----2--------2---------4--------2--------2---|
A|---2--------0---------2-------------------0---|
E|-0-----------------------------0--------------|
    Hatid mo ma'y bagyo dalangin ito ng puso kong
   E          Asus2    G#sus G#          C#m7
e|-------0----------0--------------------------4-------|
B|-------0----------0------------------------5-----5---|
G|-----1----------2----------6----5------------------4-|
D|---2----------2----------6--------6------6-----------|
A|------------0----------6------------6--4-------------|
E|-0-------------------4--------4----------------------|
     Suma.. ...  samo          Pag-ibig ko'y
   Bm7             Asus2       G#m7
e|------------------------0--------------------|
B|-------3-------3----------2------------7-----|
G|-----2-------2-------2------2-------4-----4--|
D|---4-------4-------2-------------4-----------|
A|-2-------2-------0---------------------------|
E|-------------------------------4-------------|

   Umaapaw       damdamin ko'y humihiyaw        sa tuwa    
   A             G#m7          A              G#       
e|-----------------------------------------------------------|
B|---------5-------------7--------------5--------------------|
G|------6-----6-------4----4---------6-----6----------6------|
D|---7-------------4--------------7-----------------6----6---|
A|-----------------------------------------------6---------6-|
E|-5-------------4-------------5--------------4--------------|
                   Tuwing  umuu    lan  at kapiling 
    B     C#          F#m    G#m7    A      B 
e|------------------------------------------------------|
B|------------------------------------------------------|
G|------4------6-------------------------2------4-------|
D|----4------6------------4------4-----2------4---------|
A|--2------4------------4------6-----0------2-----------|
E|--------------------2------4--------------------------|

Interlude:
   Ka.. ...
   G                F#               B9                Bsus     
e|---------3----------------2----------------2-------------2-|
B|-------3---3------------2---2------------2---2-----44h5---|
G|-----4-------4--------3-------3--------2-------2-----------|
D|---5-----------5----4-----------4----4-----------4---------|
A|-----------------------------------2---------------2-2-----|
E|-3----------------2----------------------------------------|

      Lalala      la la la     la la la la     lalalala       
   E              Asus2          B             E
e|----------------------------0--------------0-----------------|
B|-------------0-----------0-----------------------------0-----|
G|----------1-----------2-----------------8----------1-2-----1-|
D|-------2-----------2-----------------9-----------2-------2---|
A|----2-----------0-----------------9------------2-------------|
E|-0-----------------------------7-------------0---------------|          
     La la la     la la la  la la la la...
   C#m7           F#sus2         B9             B
e|----------------------------------------------------------|
B|-------5-----------------------------2--------4-----------|
G|-----4---4------------4-3----------2-----2----4-----------|
D|---6-------6--------4-----4------4---------4--4-----------|
A|-4-----------4----4------------2--------------2-----------|
E|----------------2-----------------------------------------|
     Maari bang  minsan pa  mahagkan ka't maiduyan pa
    AM7hold     G#m7hold    AM7             G#m7
e|--0-------------4---------------4------2------------------|
B|--2-------------4-------------2------0--------------------|
G|--1-------------4-----------2------1-----------4----------|
D|--2-------------4----------------------------4------------|
A|--0-------------6---------0-------------------------------|
E|----------------4--------------------------4--------------|
    Sakbibi  ka't ulan lamang ang  saksi...
   C#m7            F#sus2          B9             B Asus2, B   
e|------------------------------------------------------0-2-|
B|--------5------------------------------2--------4-----0-0-|
G|------4----------------3h4-3---------2-----2--------------|
D|---6-----------------4-------------4---------4------------|
A|-4-----------------4-------------2--------------2-2---0-2-|
E|-----------------2----------------------------------------|

Chorus 3: (same pattern in chorus 2)

      Buhos na   ulan    aking     mundo'y  lunuring   
   E                 A                 B
e|---------0-----------------0-----------------2--------|
B|-----------0-------------2---0-------------4---4------|
G|-------1-----1---------2-------2---------4-------4----|
D|-----2---------2-----2-----------2-----4-----------4--|
A|---2---------------0-----------------2----------------|
E|-0----------------------------------------------------|
  Tuluyan         Tulad ng pag agos mo   Di
   E         A  E                A   
e|----------------------0----------------0---------|
B|-------0---2------------0------------2---2-------|
G|-----1-----2--------1-----1--------2-------2-----|
D|---2-------2------2---------2----2-----------2---|
A|-----------0----2--------------0-----------------|
E|-0------------0----------------------------------|
     Mapipigil ang puso kong           nagli   
   G#sus   G#       C#m7              Bm7
e|--------------------------4-----------------2-------|
B|------------------------5---5-------------3---3-----|
G|-------6-------5------4-------4---------2-------2---|
D|-----6-------6------6-----------6-----4-----------4-|
A|---6-------6------4-----------------2---------------|
E|-4-------4------------------------------------------|
   liyab          pag ibig koy umaapaw     damdamin ko'y            
   A                 G#m7       A           G#m7           
e|---------0---------------2----------0-----------2----|
B|-------2---2-----------0---0----------2-------0---0--|
G|-----2-------2--------------------2------------------|
D|---2-----------2-----4----------2-----------4--------|
A|-0----------------------------0----------------------|
E|-------------------4----------------------4----------|
   Humuhiyaw  sa tuwa huwa huwaha... 
   A          G#sus            C# 
e|-------0----------------------------------------|
B|---------2--------------------------------------|
G|-----2------6-----6-------6------6--------6-----|
D|---2------------6-------6------6---6----6---6---|
A|-0------------6-------6------4--------4---------|
E|------------4-------4---------------------------|

 Tuwing umu     ulan at kapiling   ka   
   F#m    G#m7    A        B       E              C     
e|-2------4-------0----------------0-----0-0---------------|
B|-2------4-------2--------4-------0-----0-0------5----5-5-|
G|-2------4-------2--------4-------1-----1-1------5----5-5-|
D|-4------4-------2--------4-------2-----2-2------5----5-5-|
A|-4------6-------0--------2-------2-----2-2------3----3-3-|
E|-2------4------------------------0-----0-0---------------|

Chorus 4: (1 step higher F) strumming pattern 

    F      Bb    C    Asus   A     Dm    Am   Dsus   D    Gm  
e|--1---|-----|-----|--0--|--0--|--1--|--0--|--3--|--2--|--3--|
B|--1---|--3--|--5--|--3--|--2--|--3--|--1--|--3--|--3--|--3--|
G|--2---|--3--|--5--|--2--|--2--|--2--|--2--|--2--|--2--|--3--|
D|--3---|--3--|--5--|--2--|--2--|--0--|--2--|--0--|--0--|--5--|
A|--3---|--1--|--3--|--0--|--0--|-----|--0--|-----|-----|--5--|
B|--1---|-----|-----|-----|-----|-----|-----|-----|-----|--3--|

F          Bb          C                F       Bb   
Minsan pa ulan bumuhos ka huwag nang tumigil pa
F         Bb             Asus  A     Dm       C    Bb
Hatid mo ma'y bagyo dalangin ito ng puso kong sumasamo
   Am            Bb       Am             Bb        Asus-A-Dsus-D
Pag ibig ko'y umaapaw , damdamin ko'y humihiyaw sa tuwa
  Gm    Am   Bb     C  
Tuwing umuuulan at kapiling ka

Outro:  F-Bb-C-F-Bb-(3x)
        Bb-F-Bb-Fhold- 

La la la la lalala lalalala
Related for Tuwing Umuulan At Kapiling Ka tab