Song name
# A B C D E F G H I J K L M N O P Q R S T U V W X Y Z

Regurgitate - Vomified tab

Help us improve GuitareTab! Take a short survey!
Regurgitate: Vomified (Regurgitated to the Core)
Off of "Carnivorous Erection" (2000)
(c) Relapse Records
Tune to BEADF#B (Drop B)

Suffixes: 
" = Tremelo
L = Let Ring

Riff A: (0:02) - (0:27)
B |-----------------------------|
F#|-----------------------------|
D |-----------------------------|
A |-------7-----3--------7------|
E |2--2-9-5-5-6-1-2--2-5-5-5-6-3|
B |0--0-7---3-4---0--0-7---3-4-1|(x8)
   L      L       L      L

Riff B: (0:28)-(0:38)
B |--------------------------------------------------------|
F#|--------------------------------------------------------|
D |--------------------------------------------------------|
A |2222---------------------2222----------------------0000-|
E |-----1111---------------------1111-------1111-2222------|
B |----------33-11-00000000-----------33-11----------------|(x2)
   """" """" "" "" """""""" """" """" "" "" """" """" """"

Riff C: (0:38) - (0:47)
B |------------------------------------------------------|
F#|------------------------------------------------------|
D |------------------------------------------------------|
A |------------------------------------------------------|
E |--------555555---------111---------555555-------------|
B |0000-77--------333-444-----0000-77--------333-444-1111|(x2)
   """" "" """""" """ """ """ """" "" """""" """ """ """"

Riff B: (0:47) - (0:58)

A fairly easy song if you know how Regurgitate flows.
HAVE FUN, DAMMIT!
Related for Vomified tab