Song name
# A B C D E F G H I J K L M N O P Q R S T U V W X Y Z

Regurgitator - Blubber Boy tab

Blubber boy:
Good Song so milk it for all its worth

Riff 1:
e|--------------------------------------------------------|
B|--------------------------------------------------------|
G|--------------------------------------------------------|
D|---7-7-5-7-7-7---4-4-4----------------------------------|
A|---7-7-5-7-7-7---4-4-4----------------------------------|
E|---5-5-5-5-5-5---2-0-4----------------------------------|

Riff 2:
e|--------------------------------------------------------|
B|--------------------------------------------------------|
G|--------------------------------------------------------|
D|----4-4-7-7-4-4-----------------------------------------|
A|----4-4-7-7-4-4-----------------------------------------|
E|----2-2-5-5-2-2-----------------------------------------|


This is the little bit when it says away-ay-ay-ay
e|--------------------------------------------------------|
B|--------------------------------------------------------|
G|--------------------------------------------------------|
D|----2-2-2-2-2-2-2-2-2-2-2-2-2-2-------------------------|
A|----2-2-2-2-2-2-2-2-2-2-2-2-2-2-------------------------|
E|----0-0-0-0-0-0-0-0-0-0-0-0-0-0-------------------------|

any corrections or requests or anything just ask
jordan_beard_480@msn.com
Tap to rate this tab
 
# A B C D E F G H I J K L M N O P Q R S T U V W X Y Z