Song name
# A B C D E F G H I J K L M N O P Q R S T U V W X Y Z

Regurgitator - World Of Sleaze tab

#----------------------------------PLEASE NOTE--------------------------------#
#This file is the author's own work and represents their interpretation of the#
#song. You may only use this file for private study, scholarship, or research.#
#-----------------------------------------------------------------------------#

Date: Sun, 9 Apr 1998 14:36:21 +1000
From: Haagsma 
Subject: r/regurgitator/world_of_sleaze.tab


Verses
e ------------------------------------------------------|
B ------------------------------------------------------|
G ------------------------------------------------------|
D -----7---------5---------4------4---------------------|
A -----7---------5---------4------4---------------------|
E -5-5---5---3-3---3---2-2------2---2-------------------|

Welcome to the world of sleaze ...


e ------------------------------------------------------|
B ------------------------------------------------------|
G ------------------------------------------------------|
D -----7---------5--------------------------------------|
A -----7---------5--------------------------------------|
E -5-5---5---3-3---3---0-2-2-2-2-2-2-2-2----------------|

We've got everything that you need ...

CHORUS
Use barre chords B and E on 6th fret, D on 5th and
c# on 4th.

B         E
Dicks and cunts...

D         C#
Plenty of those ...

B	   E
There's no end ...

D                C#
just spread your legs ...

Bridge

Same chords except also G barre on 10th fret

B E  G
Ohh  Yeah!

This occurs a few times

End with:

B E   E(baby chord)
Ohh   Yeah
Tap to rate this tab
# A B C D E F G H I J K L M N O P Q R S T U V W X Y Z