Guitaretab - guitar tabs
Song name
# A B C D E F G H I J K L M N O P Q R S T U V W X Y Z

Regurgitator - Track 1 tab

-------------------------------------------------------------------------------
			     TRACK 1 - Regurgitator
-------------------------------------------------------------------------------
Tabbed by: Tyler J
Email: full_metal_orange AT hotmail DOT com

Tuning: Drop D

Intro:

E|----------------------------------------------------------|
B|----------------------------------------------------------|
G|--------2~------------------------------------------------|
D|------0--------------------1-------3-------1--------------|
A|----0--------------------1-------3------------------------|
D|--0--------------------1-------3--------1-----------------|
 |                                                          | x4
 |                                                          |
G|----------------------------------------------------------|
D|-----------------------1---1-1-1-/-3-------1--------------|
A|--5---5-5-5---3---5---------------------------------------|
E|----------------------------------------------------------|

Verse: 

E|----X------X-X--------X-X-X-----X-X-----------------------|
B|----X------X-X--------X-X-X-----X-X-----------------------|
G|----X------X-X--------X-X-X-----X-X-----------------------|
D|----X--10--X-X--6/12--X-X-X--9--X-X-5/-------------------|
A|--0-X--10--X-X--6/12--X-X-X--9--X-X-5/-------------------| 
D|--0-X--10--X-X--6/12--X-X-X--9--X-X-5/-------------------|
 |                                                          | x2
 |                                                          |
G|----------------------------------------------------------|
D|----------------------------------------------------------|
A|----------------------------------------------------------|
E|--0----------------------------------12\------------------|


E|----X------X-X--------X-X-X-----X-X-----------------------|
B|----X------X-X--------X-X-X-----X-X-----------------------|
G|----X------X-X--------X-X-X-----X-X-----------------------|
D|----X--10--X-X--6/12--X-X-X--9--X-X-5/-------------------|
A|--0-X--10--X-X--6/12--X-X-X--9--X-X-5/-------------------|
D|--0-X--10--X-X--6/12--X-X-X--9--X-X-5/-------------------|
 |                                                          | x3
 |                                                          |
G|----------------------------------------------------------|
D|----------------------------------------------------------|
A|----------------------------------------------------------|
E|--0----10-------6/12---------9---0---5/-------------------|


E|----X------X-X--------X-X-X-----X-X-----------------------|
B|----X------X-X--------X-X-X-----X-X-----------------------|
G|----X------X-X--------X-X-X-----X-X-----------------------|
D|----X--10--X-X--6/12--X-X-X-----X-X-----------------------|
A|--0-X--10--X-X-6/12--X-X-X--1--X-X--1--0-----------------|
D|--0-X--10--X-X-6/12--X-X-X--1--X-X--1--0-----------------|
 |                                                          |
 |                                                          |
G|----------------------------------------------------------|
D|----------------------------------------------------------|
A|----------------------------------------------------------|
E|--0----10-------6/12---------1---0---1--0-----------------|


G|-----------------------------------------|
D|-----------------------------------------| x4
A|-----------------------------------------|
E|--0-0-0-0--10-10-10--0--6-6-6-6--9-9--5--|

My life is a paradox
seems that I care a lot
meaning that I stare a lot
but I don't give a fuck

Armchair compassionate
accessory fashion it
get me a character fit to assassinate

                              
E|----X------X-X--------X-X-X-----X-X-----------------------|
B|----X------X-X--------X-X-X-----X-X-----------------------|
G|----X------X-X--------X-X-X-----X-X-----------------------|
D|----X--10--X-X--6/12--X-X-X--9--X-X-5/-------------------|
A|--0-X--10--X-X--6/12--X-X-X--9--X-X-5/-------------------|
D|--0-X--10--X-X--6/12--X-X-X--9--X-X-5/-------------------|
 |                                                          | x3
 |                                                          |
G|----------------------------------------------------------|
D|----------------------------------------------------------|
A|----------------------------------------------------------|
E|--0----10-------6/12---------9---0---5/-------------------|


E|----X------X-X--------X-X-X-----X-X-----------------------|
B|----X------X-X--------X-X-X-----X-X-----------------------|
G|----X------X-X--------X-X-X-----X-X-----------------------|
D|----X--10--X-X--6/12--X-X-X-----X-X-----------------------|
A|--0-X--10--X-X-6/12--X-X-X--1--X-X--1--0-----------------|
D|--0-X--10--X-X-6/12--X-X-X--1--X-X--1--0-----------------|
 |                                                          |
 |                                                          |
G|----------------------------------------------------------|
D|----------------------------------------------------------|
A|----------------------------------------------------------|
E|--0----10-------6/12---------1---0---1--0-----------------|

I generalise, criticise, amplify
exemplifying what? Take a shot
then sell it while the barrel's hot

Lying there and rotting thinking what do I crave?
Slave to the market, market for the slaves

Chorus:

E|----------------------------------------------------------|
B|----------------------------------------------------------|
G|----------------------------------------------------------|
D|-----0-0-0-10-10-10-0-6-6-6-6-6-9-9-9-5-5-----------------|
A|-----0-0-0-10-10-10-0-6-6-6-6-6-9-9-9-5-5-----------------|
D|-----0-0-0-10-10-10-0-6-6-6-6-6-9-9-9-5-5-----------------|
 |                                                          |
 |                                                          | x4
G|----------------------------------------------------------|
D|----------------------------------------------------------|
A|------------3--3--3-------------1-1-1---------------------|
E|-----0-0-0------------1-1-1-1-1-------4-4-----------------|

Im just a sucker like you
Im just a sucker like you
Im just a sucker like you
Im just a sucker like you

Verse: 
[ Tab from: http://www.guitaretab.com/r/regurgitator/171695.html ]
E|----X------X-X--------X-X-X-----X-X-----------------------|
B|----X------X-X--------X-X-X-----X-X-----------------------|
G|----X------X-X--------X-X-X-----X-X-----------------------|
D|----X--10--X-X--6/12--X-X-X--9--X-X-5/-------------------|
A|--0-X--10--X-X--6/12--X-X-X--9--X-X-5/-------------------| 
D|--0-X--10--X-X--6/12--X-X-X--9--X-X-5/-------------------|
 |                                                          | x2
 |                                                          |
G|----------------------------------------------------------|
D|----------------------------------------------------------|
A|----------------------------------------------------------|
E|--0----------------------------------12\------------------|


E|----X------X-X--------X-X-X-----X-X-----------------------|
B|----X------X-X--------X-X-X-----X-X-----------------------|
G|----X------X-X--------X-X-X-----X-X-----------------------|
D|----X--10--X-X--6/12--X-X-X--9--X-X-5/-------------------|
A|--0-X--10--X-X--6/12--X-X-X--9--X-X-5/-------------------|
D|--0-X--10--X-X--6/12--X-X-X--9--X-X-5/-------------------|
 |                                                          |
 |                                                          |
G|----------------------------------------------------------|
D|----------------------------------------------------------|
A|----------------------------------------------------------|
E|--0----10-------6/12---------9---0---5/-------------------|



G|-----------------------------------------|
D|-----------------------------------------| x4
A|-----------------------------------------|
E|--0-0-0-0--10-10-10--0--6-6-6-6--9-9--5--|

Social stand-outs with plastic obsessions
commercial handouts for catchy confessions
I've got the fear that I'm gonna get afflicted
with a means to and end I'm contradicted
                              
E|----X------X-X--------X-X-X-----X-X-----------------------|
B|----X------X-X--------X-X-X-----X-X-----------------------|
G|----X------X-X--------X-X-X-----X-X-----------------------|
D|----X--10--X-X--6/12--X-X-X--9--X-X-5/-------------------|
A|--0-X--10--X-X--6/12--X-X-X--9--X-X-5/-------------------|
D|--0-X--10--X-X--6/12--X-X-X--9--X-X-5/-------------------|
 |                                                          | x3
 |                                                          |
G|----------------------------------------------------------|
D|----------------------------------------------------------|
A|----------------------------------------------------------|
E|--0----10-------6/12---------9---0---5/-------------------|


E|----X------X-X--------X-X-X-----X-X-----------------------|
B|----X------X-X--------X-X-X-----X-X-----------------------|
G|----X------X-X--------X-X-X-----X-X-----------------------|
D|----X--10--X-X--6/12--X-X-X-----X-X-----------------------|
A|--0-X--10--X-X-6/12--X-X-X--1--X-X--1--0-----------------|
D|--0-X--10--X-X-6/12--X-X-X--1--X-X--1--0-----------------|
 |                                                          |
 |                                                          |
G|----------------------------------------------------------|
D|----------------------------------------------------------|
A|----------------------------------------------------------|
E|--0----10-------6/12---------1---0---1--0-----------------|

Lost my integrity just momentarily
grab its sorry ass and pin the fucker down please
slap it in the face till it quits the hysteric
rhetoric then my friend you can fucking bury it

Chorus:
E|----------------------------------------------------------|
B|----------------------------------------------------------|
G|----------------------------------------------------------|
D|-----0-0-0-10-10-10-0-6-6-6-6-6-9-9-9-5-5-----------------|
A|-----0-0-0-10-10-10-0-6-6-6-6-6-9-9-9-5-5-----------------|
D|-----0-0-0-10-10-10-0-6-6-6-6-6-9-9-9-5-5-----------------|
 |                                                          |
 |                                                          | x4
G|----------------------------------------------------------|
D|----------------------------------------------------------|
A|------------3--3--3-------------1-1-1---------------------|
E|-----0-0-0------------1-1-1-1-1-------4-4-----------------|

Im just a sucker like you
Im just a sucker like you
Im just a sucker like you
Im just a sucker like you
Im just a sucker like you
Im just a sucker like you
Im just a sucker like you
Im just a sucker like -

Bridge:

E|----------------------------------------------------------|
B|----------------------------------------------------------|
G|----------------------------------------------------------|
D|--3-3-3-3---6-6---9-9-9---12-12-12------------------------|
A|--3-3-3-3---6-6---9-9-9---12-12-12------------------------| 
D|--3-3-3-3---6-6---9-9-9---12-12-12------------------------|
 |                                                          | x4
 |                                                          |
G|----------------------------------------------------------|
D|----------------------------------------------------------|
A|------------------2-2-2---5--5--5-------------------------|
E|--3-3-3-3---6-6-------------------------------------------|

Outro:

E|----------------------------------------------------------|
B|----------------------------------------------------------|
G|----------------------------------------------------------|
D|--3-3-3-3--6-6-6-6--9-9-9-9--12-12-12-12------------------|
A|--3-3-3-3--6-6-6-6--9-9-9-9--12-12-12-12------------------|
D|--3-3-3-3--6-6-6-6--9-9-9-9--12-12-12-12------------------|
 |                                                          | x9
 |                                                          |
G|----------------------------------------------------------|
D|----------------------------------------------------------|
A|--------------------2-2-2-2--5--5--5--5-------------------|
E|--3-3-3-3--6-6-6-6----------------------------------------|


Im just a sucker like you
Im just a sucker like you
Im just a sucker like you
Im just a sucker like you
Im just a sucker like you
Im just a sucker like you
Im just a sucker like you
Im just a sucker like you
Im just a sucker like -

Related for Track 1 tab