Song name
# A B C D E F G H I J K L M N O P Q R S T U V W X Y Z

Regurgitator - Sonnet Of A Media Mogul tab

----------------------------------------------------------------------------
			     SONG NAME - Band Name
----------------------------------------------------------------------------
Tabbed by:majed
Email:majedissa2@hotmail.com

Tuning:standard

ok folks nice song simple, n fun 2 play.

intro: very mellow

e|-------------------------------------------------------------------------|
B|-------------------------------------------------------------------------|
G|-------------------------------------------------------------------------|
D|--12--12/15-15--9--9/12-12-7-5-3-2h3p2-3/5-5-----------------------------|
A|-------------------------------------------------------------------------|
E|-------------------------------------------------------------------------|

well basically the verse is done with bass at the bak and very ligh guitar , but like 
done in the verse is done in the chorus.


verse
e|----------------------------------------------------------------------|
B|----------------------------------------------------------------------|
G|------------5---------------------------------------------------------|
D|--5-x-3/5--5-----------------5-5-5-5----------------------------------|
A|--5-x-3/5--3-----------------5-5-5-5----------------------------------|
E|--3-x-1/3--------------------3-3-3-3----------------------------------|
                            here i go here i go.....

 and dudes wat ever is played in the verses r played in the chorus only louder, pleasure 
buisness with u guys ciao.


| /  slide up
| \  slide down
| h  hammer-on
| p  pull-off
| ~  vibrato
| +  harmonic
| x  Mute note
===============================================================================
Tap to rate this tab
 
# A B C D E F G H I J K L M N O P Q R S T U V W X Y Z