Song name
# A B C D E F G H I J K L M N O P Q R S T U V W X Y Z

Regurgitator - Black Bugs tab

BLACK BUGS

Standard tuning

INTRO/VERSE

Clean

e|------------------------------------------|
B|------------------------------------------|
G|------------------------------------------|
D|-8-8-8-8-8-8-4-4-4-4-4-4-4----------------| 
A|-6-6-6-6-6-6-2-2-2-2-2-2-2----------------|
E|------------------------------------------|
CHORUS

Distorted

e|-------------------------------------------------|
B|-------------------------------------------------|
G|-------------------------------------------------| 
D|-6-6-6-6-6-6-6-6-8-8-8-8-8-8-8-8-----------------|
A|-4-4-4-4-4-4-4-4-6-6-6-6-6-6-6-6-4-4-4-4-4-4-4-4-|
E|---------------------------------2-2-2-2-2-2-2-2-|

Solo
    
e|--------------------------------------------|
B|--------------------------------------------|
G|-13/15-13-12--------------------------------|
D|------------13-13-13/16-16-15-15----13-13---|
A|--------------------------------------------|
E|--------------------------------------------|

e|--------------------------------------------|
B|-------------------------------16--16-------|
G|-13/15-13-12--------------------------------|
D|------------13-13-13/16-16-15-15-15-----13--|
A|--------------------------------------------|
E|--------------------------------------------|

e|--------------------------------------------|
B|--------------------------------------------|
G|-13/15-13-12--------------------------------|
D|------------13-13-13/16-16-15-15----13-13---|
A|--------------------------------------------|
E|--------------------------------------------|

e|--------------------------------------------|
B|-------------------------19-----------------|
G|-13/15-13-12--------------------------------|
D|------------13-13-13/16---------------------|
A|--------------------------------------------|
E|--------------------------------------------|

End of Song solo

e|---------------------------------|
B|---------------------------------|
G|-11/13----13/15--15/18----10/11--|
D|---------------------------------|
A|---------------------------------|
E|---------------------------------|
Tap to rate this tab
# A B C D E F G H I J K L M N O P Q R S T U V W X Y Z