Song name
# A B C D E F G H I J K L M N O P Q R S T U V W X Y Z

Regurgitator - Modern Life tab

|=============|==============|
| MODERN LIFE | REGURGITATOR |
|=============|==============|


tabbed by gref

Guitar One - INTRO/VERSE

  A7       D5
  VVVVVVVV VVVVVVVV
e-------------------|
B-------------------|
G-------------------|
D-55555555-77777777-| x8 (Intro)
A-77777777-55555555-|
E-------------------|

Riff x4 (Verse)

Guitar Two - VERSE 1

e-33333333-55555555-|
B-33333333-33333333-|
G-------------------|
D-------------------| x4
A-------------------|
E-------------------|

Well you know, they make you want it
When you see it on the TV shows
And maybe then, you might buy it
If it makes you feel home and hosed

Oh oh oh


Guitar One - CHORUS

  Em     Em     Em     Em     C5       D5
  V ^    V ^    V ^    V ^    VVVVVVVV VVVVVVVV
e-0-0----0-0----0-0----0-0----------------------|
B-0-0----0-0----0-0----0-0----------------------|
G-0-0----0-0----0-0----0-0----55555555-77777777-| x2
D-2-2----2-2----2-2----2-2----55555555-77777777-|
A-2-2----2-2----2-2----2-2----33333333-55555555-|
E-0-0----0-0----0-0----2-2----------------------|

You want it
You want it
You want it
You want it oh no
They try to tell you this is modern life

You want it
You want it
You want it
You want it oh no
I don't believe that this is modern life

Guitar Two Feedback

Guitar One
Riff x4 (Lead in)
Riff x4 (Verse)

Guitar Two

2 bars rest.

e-3--------5---------|
B--------------------|
G--------------------|
D--------------------| x2
A--------------------|
E--------------------|

e---3------5---------|
B-3------------------|
G--------------------|
D--------------------| x4
A--------------------|
E--------------------|

Can't you see, that they want us
To be brainwashed into their big schemes
So I can tell, I see sex sells
Because its becoming a recurring theme

CHORUS

You want it
You want it
You want it
You want it oh no
They try to tell you this is modern life

You want it
You want it
You want it
You want it oh no
I don't believe that this is modern life


Guitar One - INTERLUDE

e-------------------------------------|
B-00000000-11111111-00000000-00000000-|
G-00000000-00000000-00000000-00000000-|
D-22222222-22222222-00000000-00000000-| x4
A-22--22---33--33---22222222-22222222-|
E-00--00---00--00---33333333-33333333-|
                        xx       xx

Bow down to fashion today
Because it's gonna make you feel ok
Bow down to fashion today
Because it's gonna make you feel the same

Bow down to fashion today
Because it's gonna make you feel ok
Bow down to fashion today
Because it's gonna make you feel the same

Guitar One - END

  Em   
  V ^   
e-0-0---|
B-0-0---|
G-0-0---|
D-2-2---| x8
A-2-2---|
E-0-0---|

e---------|
B---------|
G---------|
D-555-777-| x4
A-777-777-|
E---------|

END NOTE:
e---|
B---|
G---|
D-7-|
A-7-|
E---|

^ = upstroke
V = downstroke
x = mute
Tap to rate this tab
# A B C D E F G H I J K L M N O P Q R S T U V W X Y Z