Song name
# A B C D E F G H I J K L M N O P Q R S T U V W X Y Z

Regurgitator - Pretty Girls Swear tab

This Song is incredibly simple, but fun to start off trying to sing and play to.


Author/Artist: Regurgitator
Title: Pretty Girls Swear
Album: Earliest EP
Transcribed by: Owen Gerrard
Age: 15
Email: pucker_up_those_lemon_flavoured_lips@hotmail.com


/  slide up
h  hammer-on
p  pull-off
~  vibrato
^  Artificial harmonic
<> Natural Harmonic
x  Mute note
PM Palm Mute
\  slide down


Standard Tuning

Intro

e|-----------------------------------------------------|
B|-----------------------------------------------------|
G|-9-9-9-9-9-9-9-9-9-9-9-9-9-9-9-9-9-9-9-9-9-9-9-9-9-9-|
D|-9-9-9-9-9-9-9-9-9-9-9-9-9-9-9-9-9-9-9-9-9-9-9-9-9-9-|
A|-7-7-7-7-7-7-7-7-7-7-7-7-7-7-7-7-7-7-7-7-7-7-7-7-7-7-|
E|-----------------------------------------------------|

verse

e|----------------------------------------------------|
B|----------------------------------------------------|
G|-9-9-9-9-9-9-9-9---------7-7-7-7--------------------|Repeat as needed
D|-9-9-9-9-9-9-9-9-7-7-7-7-7-7-7-7--------------------|
A|-7-7-7-7-7-7-7-7-7-7-7-7-5-5-5-5--------------------|
E|-----------------5-5-5-5----------------------------|

Chorus

e|----------------------------------------------------|
B|----------------------------------------------------|
G|-9-9-9-9-----7-7-9-9-9-9-----7-7--------------------|Repeat as needed
D|-9-9-9-9-7-7-7-7-9-9-9-9-7-7-7-7--------------------|
A|-7-7-7-7-7-7-5-5-7-7-7-7-7-7-5-5--------------------|
E|---------5-5-------------5-5------------------------|

err0r
Tap to rate this tab
# A B C D E F G H I J K L M N O P Q R S T U V W X Y Z