Song name
# A B C D E F G H I J K L M N O P Q R S T U V W X Y Z

Regurgitator - Robot Man tab

Artist: Regurgitator
Song: My Friend Robot
Album: Mish Mash


Intro:
e -----
B -----
G -----
D -99--
A -99--
E -77--

Verse:
e  ----------------------------------------------------------------------|
B  ----------------------------------------------------------------------|
G  -8-8-8--------------------13-13-13---8-8-8-------------------11-11-11-|
D  -8-8-8--8-8-8--11-11-11---13-13-13---8-8-8--8-8-8--11-11-11--11-11-11-|
A  -6-6-6--8-8-8--11-11-11---11-11-11---6-6-6--8-8-8--11-11-11--9--9--9--|
E  --------6-6-6--9--9--9----------------------6-6-6--9--9--9------------|

Chorus
e  ---------------------------------------|
B  ---------------------------------------|
G  -88888888-66666666---------------------|
D  -88888888-66666666-44444444-66666666---|
A  -66666666-44444444-44444444-66666666---|
E  -------------------22222222-44444444---|

Interlude
e  -----------------------------------|
B  -----------------------------------|
G  -------------8----------------6----|
D  -88888888888-8-8-666666666666-6-6--|
A  -88888888888-6-8-666666666666-4-6--|
E  -66666666666---6-444444444444---4--|

Outro:
e  -----------|
B  -----------|
G  -888888888-
D  -888888888-
A  -666666666-
E  -----------		 etc...


Order: intro x 1
 verse x 6
	 chorus x 2
	 verse x 6
	 chorus x 4
	 interlude x 4
	 intro x 1
	 verse x 2
	 chorus x 4
	 verse x 2*

*If you have two guitars one can play the outro over the last two verses
Tap to rate this tab
# A B C D E F G H I J K L M N O P Q R S T U V W X Y Z