Song name
# A B C D E F G H I J K L M N O P Q R S T U V W X Y Z

Regurgitator - Shopping Mall Soul tab

-------------------------------------------------------------------------------
			 Shopping Mall Soul  - Regurgitator
-------------------------------------------------------------------------------
Tabbed by: Neonecron
Email: neonecron@hotmail.com
Tuning:Standard
This is my first tab, so I hope it's alright. I'll put the solo in once I can figure it 
unless someone can do that for me.

(Intro/Verse)
E-------------------------------------------------------------------------|
B-------------------------------------------------------------------------|
G-------------------------------------------------------------------------|
D--999999999999999999999999-xx-999-xx-777-xx-555555555555555555555555-----|
A--999999999999999999999999-xx-999-xx-777-xx-555555555555555555555555-----|
E--777777777777777777777777-xx-777-xx-555-xx-333333333333333333333333-----|

E-------------------------------------------------------------------------|
B-------------------------------------------------------------------------|
G-------------------------------------------------------------------------|
D--xx-555-xx-444-xx-222222222222222222222222------------------------------|
A--xx-555-xx-444-xx-222222222222222222222222-557--------------------------|
E--xx-333-xx-222-xx-000000000000000000000000-----77-10-7------------------|

(Chorus)
E-------------------------------------------------------------------------|
B-------------------------------------------------------------------------|
G-------------------------------------------------------------------------|
D-----------------------------------12-12-12-12-12-12-12-12-99999999------|
A--99999999-12-12-12-12-12-12-12-12-10-10-10-10-10-10-10-10-77777777------|
E--77777777-10-10-10-10-10-10-10-10---------------------------------------|

(End)
E------------|
B------------|
G------------|
D--9----9----|
A--9----9----|
E--7----7----|

Song Order:
(Intro)
(Verse)
(Chorus)
(Verse)
(Chorus)
(Solo)
(Verse)
(Chorus)
(End)
Tap to rate this tab
 
# A B C D E F G H I J K L M N O P Q R S T U V W X Y Z