Guitaretab - guitar tabs
Song name
# A B C D E F G H I J K L M N O P Q R S T U V W X Y Z
Home / R / Rehab / Bump tab

Rehab - Bump tab

Song: Bump
Band: Re-Hizab
Tabbed by: Sean Conte
Tuning: Drop D
Owned
E-mail: SeanC878@yahoo.com

I dunno it seems pretty right, feel free to give suggestions and I'll fix it.

Intro: 

|-11--11/12-9--11-7--6-4-|
|------------------------|
|------------------------|
|------------------------|
|------------------------|
|------------------------|

Chorus:

"I got my hat tilted sideways and brand new shoes...."
|-------------------------|
|-------------------------|
|-------------------------|
|--6-x-7-8-7-6-6-7-8-7-8--|
|--6-x-------6-6----------|
|--6-x-------6-6----------|


Lead-in to verse:
Listen to song for strum pattern

"Black treeeeeeeeeeeeeeee"
|-------------------------------|
|-------------------------------|
|-------------------------------|
|-6-6-6-6-6-6-6-0-6-6-6-6-6-6-6-|
|-6-6-6-6-6-6-6-0-6-6-6-6-6-6-6-|
|-6-6-6-6-6-6-6-0-6-6-6-6-6-6-6-|
  x x x x x x x x x x x x x x x


"Silouhetted against an orange sky"
|-------------------------------|
|-------------------------------|
|--6-6-6-6-6-6-6--9-9-9-9-9-9-9-|
|--6-6-6-6-6-6-6--9-9-9-9-9-9-9-|
|--4-4-4-4-4-4-4--7-7-7-7-7-7-7-|
|-------------------------------|
    x x x x x x    x x x x x x
[ Tab from: http://www.guitaretab.com/r/rehab/113610.html ]
"Cool breeze"
|-------------------------------|
|-------------------------------|
|-------------------------------|
|-6-6-6-6-6-6-6-0-6-6-6-6-6-6-6-|
|-6-6-6-6-6-6-6-0-6-6-6-6-6-6-6-|
|-6-6-6-6-6-6-6-0-6-6-6-6-6-6-6-|
  x x x x x x x x x x x x x x x

"On a country road I'm ten feet high"
|------------------------------|
|------------------------------|
|--6-6-6-6-6-6-6--9-9-9-9-9-9-9|
|--6-6-6-6-6-6-6--9-9-9-9-9-9-9|
|--4-4-4-4-4-4-4--7-7-7-7-7-7-7|
|------------------------------|
     x x x x x x    x x x x x x

"Im just about to take another step up"
|-----------------------------------|
|-----------------------------------|
|-----------------------------------|
|-6-6-6-6-6-6-6-6-6-6-6-6-6-6-6-6-6-|
|-6-6-6-6-6-6-6-6-6-6-6-6-6-6-6-6-6-|
|-6-6-6-6-6-6-6-6-6-6-6-6-6-6-6-6-6-|
  x x x x x x x x x x x x x x x x x 

"..0hhh, Real world got me kinda fed up"
|----------------------------------------|
|----------------------------------------|
|----------------------------------------|
|--2-2-2-2-2-2-2-2-2-2-2-2-2-2-2-2-------|
|--2-2-2-2-2-2-2-2-2-2-2-2-2-2-2-2-------|
|--2-2-2-2-2-2-2-2-2-2-2-2-2-2-2-2-------|
   x x x x x x x x x x x x x x x x

"...ohh, I got places to go and people I know" 
|------------------------|
|------------------------|
|-6-6-6-6-6--9-9-9-9-9-9-|
|-6-6-6-6-6--9-9-9-9-9-9-|
|-4-4-4-4-4--7-7-7-7-7-7-|
|------------------------|
    x x x x    x x x x x

"are waiting on me to arrive"
|-------------------------------|
|-------------------------------|
|-------------------------------|
|-2-2-2-2-2-2-5-5-5-5-5-6-6-6-6-|
|-2-2-2-2-2-2-5-5-5-5-5-6-6-6-6-|
|-2-2-2-2-2-2-5-5-5-5-5-6-6-6-6-|
  x x x x x x 

Then back to chorus, etc.

Related for Bump tab
Advertisement will be closed in 10 seconds