Guitaretab - guitar tabs
Song name
# A B C D E F G H I J K L M N O P Q R S T U V W X Y Z
Home / R / Rehasher / Pvc tab

Rehasher - Pvc tab

We need some damned 'hasher here, and this tab is pretty accurate.
Look out for other rehasher tabs and bass for PVC.
Happy playing!
there's a lot of secret strumming and two note chords, to keep in mind.
Go to www.rehasher.com

INTRO(x2)
E|----------------------------|
B|----------------------------|
G|-9-9--9-9--66-6-6-6---------|
D|-9-9--9-9--66-6-6-6-777-777-|
A|-7-7--7-7--44-4-4-4-777-777-|
E|--------------------555-555-|

INTRO2(x2)
Guitar 1
E|-------------------------------------|
B|-------------------------------------|
G|-99991111119-6666-1414-13-13-1111-99-|
D|-xxxxx-x-x-x-xxxx--x-x--x--x-x-x--xx-|
A|-77779-9-9-7-4444-1212-11-11-9-9--77-|
E|-------------------------------------|

Guitar 2
E|--------------------|
B|--------------------|
G|-99999999-6666------|
D|-99999999-6666-7777-|
A|-77777777-4444-7777-|
E|---------------5555-|

BRIDGE
Guitar 1
E|-----------|
B|-----------|
G|----44-77~-|
D|-44-44-77~-|
A|-44-22-55~-|
E|-22--------|

Guitar 2
E|-----------------|
B|-----------------|
G|------1616-1414~-|
D|-1616-1616-1414~-|
A|-1616-1414-1212~-|
E|-1414------------|
[ Tab from: http://www.guitaretab.com/r/rehasher/76193.html ]
VERSE(x2)
Guitar 1
E|-------------------------|------------------------|
B|-------------------------|------------------------|
G|-99999999------1414-1313-|-9999999-4------14~-13~-|
D|-99999999-7777-----------|-----------7777-14~-13~-|
A|-77777777-7777-1212-1111-|-7777777-2------12~-11~-|
E|----------5555-----------|-----------5555---------|

Guitar 2
E|--------------------|----------------------|
B|--------------------|----------------------|
G|-99999999-----------|-999999999------------|
D|-99999999-7777777777|-999999999-7777-7~-6~-|
A|-77777777-7777777777|-777777777-7777-7~-6~-|
E|----------5555555555|-----------5555-5~-4~-|

PRE-CHORUS
Guitar 1
E|-----------------|
B|-----------------|
G|-999999999999999-
D|-xxxxxxxxxxxxxxx-
A|-777777777777777-
E|-----------------

Guitar 2
E|-----------------|
B|-----------------|
G|-999999999999999-
D|-999999999999999-
A|-777777777777777-
E|-----------------

CHORUS 1(x2)
Guitars 1 + 2
E|-------------------|
B|-------------------|
G|-99-9999-6666------|
D|-99-9999-6666-7777-|
A|-77-7777-4444-7777-| kinda strums the C# and A
E|--------------5555-|

CHORUS 2(x2)
Same as intro2

BRIDGE

VERSE 2(x2)
same as verse1

PRE-CHORUS

CHORUS 1+2

BRIDGE

MIDDLE PART
Guitar 1+2

E|-----------------|-----------------------|
B|--------x2-------|-----------------------|
G|-999-666----4----|999-666-------44444444-|
D|-999-666-44-4-777|999-666-4~-7~-44444444-|
A|-777-444-44-2-777|777-444-4~-7~-22222222-|
E|---------22---555|--------2~-5~----------|

NEW PRE-CHORUS(x2)
Guitar 1+2

E|-------------------|
B|-------------------|
G|-9999999---6-------|
D|-9999999--6-6---7--|
A|-7777777-4-----7-7-|
E|--------------5----|

CHORUS 1+2

BRIDGE(ringing last note)

For corrections or whatever, try out ltjpezmachine@yahoo.com
Related for Pvc tab
Advertisement will be closed in 10 seconds