Reign Supreme - Apostle tab

ARTIST: Reign Supreme
WEBSITE: http://www.deathwishinc.com/bands/75/
SONG: Mother Superior
ALBUM: Testing The Limits Of Infinite
TABBED BY: GuyWithBigWiener@gmail.com
TUNING: Drop C#
NOTES: Tabbed by ear. Send corrections to the above email.

Intro:
D#|---------------------|
A#|----------3----------|
F#|----------2----------|
C#|---------------------|
G#|---------------------|
C#|--1\12/0-----1\12/0--| 

Pre-Verse/Chorus Riff
D#|-------------------|
A#|-------------------|
F#|-------------------|
C#|-------------------|  x4
G#|--0-1-0-6-0-1-4-3--|
C#|--0-1-0-6-0-1-4-3--| 

Verse (Listen for the picking rhythm of the palm mutes)
D#|-------------------------------------------------------------|
A#|-------------------------------------------------------------|
F#|-------------------------------------------------------------|
C#|-------------------------------------------------------------|  x2
G#|--6-00-3-0-0000-1-00-4-0-0-3-0--6-00-3-0-0000-1-00-4---------|
C#|--6-00-3-0-0000-1-00-4-0-0-3-0--6-00-3-0-0000-1-00-4-000000--| 
       xx     xxxx   xx   x x   x    xx     xxxx   xx   xxxxxx

Pre-Chorus (Part 1)
D#|-----------------------------------------------------------------|
A#|-----------------------------------------------------------------|
F#|-----------------------------------------------------------------|
C#|-----------------------------------------------------------------| x2
G#|------------------------------------------------------------6-5--|
C#|--000-000-000-000-000-000-000-1-0-000-000-000-0-3-5-0-5-6-0------| 
     xxx xxx xxx xxx xxx xxx xxx     xxx xxx xxx x x x x x x x 

Pre-Chorus (Part 2)
D#|--------------------------------------------------------------------|
A#|--------------------------------------------------------------------|
F#|--------------------------------------------------------------------|
C#|--------------------------------------------------------------------|
G#|--0-0-0-0-0-0-0-0-0-0-0-0-0-0-0-0-1-1-1-1-1-1-1-1-1-1-1-1-1-1-12\0--|
C#|--0-0-0-0-0-0-0-0-0-0-0-0-0-0-0-0-1-1-1-1-1-1-1-1-1-1-1-1-1-1-12\0--| 
     x x x x x x x x x x x x x x x x

Chorus (After Second Verse)
D#|-------------------|     D#|--------------------|
A#|-------------------|     A#|--------------------|
F#|-------------------|     F#|--------------------|
C#|-------------------| x4  C#|--------------------|  x2
G#|--0-1-0-6-0-1-4-3--|     G#|--5-6-5-11-5-6-9-8--|
C#|--0-1-0-6-0-1-4-3--|     C#|--5-6-5-11-5-6-9-8--|

Chorus Outro
D#|---------------------------------------|
A#|---------------------------------------|
F#|---------------------------------------|
C#|---------------------------------------|
G#|----------------------------------0-0--|
C#|--0111111111111113333333344444444-0-0--| 
     xxxxxxxxxxxxxxxxxxxxxxxxxxxxxxx

Breakdown (After feedback/drum/rhythm bridge)
D#|----------------------------------------------------------------|
A#|----------------------------------------------------------------|
F#|----------------------------------------------------------------|
C#|----------------------------------------------------------------| x2
G#|--1-1-1-1-6-6-000000000-00000-00000-00000000000-00000-0000 0-1--|
C#|--1-1-1-1-6-6-000000000-00000-00000-00000000000-00000-0000 0-1--| 
                 xxxxxxxxx xxxxx xxxxx xxxxxxxxxxx xxxxx xxxx

Breakdown (Part 2)
D#|---------------------------------------------------------|
A#|---------------------------------------------------------|
F#|---------------------------------------------------------|
C#|---------------------------------------------------------| x2
G#|--00000000-5-0000-5-0000-5\3-00000000-5-0000-5-0000-5\6--|
C#|--00000000---0000---0000-----00000000---0000---0000------| 
     xxxxxxxx   xxxx   xxxx     xxxxxxxx   xxxx   xxxx
Tap to rate this tab
 
# A B C D E F G H I J K L M N O P Q R S T U V W X Y Z