Song name
# A B C D E F G H I J K L M N O P Q R S T U V W X Y Z

Reign - Blind Man tab

Help us improve GuitareTab! Take a short survey!
Artist: Reign
Song: Blind Man
Album: ???

Standared Tuning-

Intro Guitar One- Clean Electric

e|---------------------------------------------------------------|
B|---------------------------------------------------------------|
G|---------------------------------------------------------------|
D|------7------5------3-----2------------------------------------| (x2)
A|----7------5------3-------2------------------------------------|
E|--5------3------1---------0------------------------------------|

Third Time

e|---------------------------------------------------------------|
B|---------------------------------------------------------------|
G|---------------------------------------------------------------|
D|------7------5------3-----2-2-2-2-2-2-2-2-2-2-2-2-2-2-2--------|
A|----7------5------3-------2-2-2-2-2-2-2-2-2-2-2-2-2-2-2--------|
E|--5------3------1---------0-0-0-0-0-0-0-0-0-0-0-0-0-0-0--------|

Guitar Two enters like this with Distortion and plays the progression below with Guitar One and an 
playing the chords.

             A           G           F    E
e|---------------------------------------------------------------|
B|---------------------------------------------------------------|
G|---------------------------------------------------------------|
D|----------7-7--x-x-x--5-5--x-x-x--3-3---2---2-2----------------|
A|----------7-7--x-x-x--5-5--x-x-x--3-3---2---2-2----------------|
E|--15\-----5-5--x-x-x--3-3--x-x-x--1-1---0---0-0----------------|


e|---------------------------------------------------------------|
B|---------------------------------------------------------------|
G|---------------------------------------------------------------|
D|-----7-7--x-x-x--5-5--x-x-x--3-3---2---2-2---------------------|
A|-----7-7--x-x-x--5-5--x-x-x--3-3---2---2-2---------------------|
E|-----5-5--x-x-x--3-3--x-x-x--1-1---0---0-0---------------------|

e|-----------------------------------------------------------------|
B|-----------------------------------------------------------------|
G|-----------------------------------------------------------------|
D|-----7-7--x-x-x--5-5--x-x-x--3-3---2-2-2-2-2-2-2-2-2-2-2-2-2-2-2-|
A|-----7-7--x-x-x--5-5--x-x-x--3-3---2-2-2-2-2-2-2-2-2-2-2-2-2-2-2-|
E|-----5-5--x-x-x--3-3--x-x-x--1-1---0-0-0-0-0-0-0-0-0-0-0-0-0-0-0-|


That progression is repeated through the whole song.

The solo is played by guitar two and guitar one plays the same progression as above.

Solo- Use distortion and Wah.


e|------------------------------------------------------------------|
B|-------------------6---8------------------------------------------|
G|------------5---7----------7--------------------------------------|
D|-----5---7--------------------------------------------------------|
A|------------------------------------------------------------------|
E|------------------------------------------------------------------|

e|------------------------------------------------------------------|
B|-------------------6---8------------------------------------------|
G|------------5---7----------7--------------------------------------|
D|-----5---7--------------------------------------------------------|
A|------------------------------------------------------------------|
E|------------------------------------------------------------------|

e|------------------------------------------------------------------|
B|-------------------6---8------------------------------------------|
G|------------5---7----------7-7-7-7/9-9-9-9/12-12-12-12-12-12-12-12|
D|-----5---7--------------------------------------------------------|
A|------------------------------------------------------------------|
E|------------------------------------------------------------------|


For acoustic chords are:

A= x02220
G= 320003
F= 133211
E= 022100

Its a simple song..and it sounds good too
Related for Blind Man tab