Guitaretab - guitar tabs
Song name
# A B C D E F G H I J K L M N O P Q R S T U V W X Y Z

Reik - Noviembre Sin Ti tab

-------------------------------------------------------------------------------
			  Noviembre Sin Ti - Reik
-------------------------------------------------------------------------------
Tabbed by:Royand
Email:rodrigo_salinas97@hotmail.com

This is my first tab.
I like this song and the tabs I've seen, the intro is wrong, or they just use a string, 
so here it is...
[ Tab from: http://www.guitaretab.com/r/reik/302632.html ]
e|-1----0----0--0------0----0--3-----3--3--3--3-|
B|-3----1----3--1------1--3----1-----1--1--1--0-|
G|-2----2----2--2------0-------0-----0--0--0--0-|
D|-0----3----3--3------2-------0-----0--0--0--0-|
A|-0----0----0--0------3-------2-----2--2--2--2-|
E|-0----0----0--0------0-------3-----3--3--3--3-| x2

e|-3--3--3--3----3---3---3--3--3--3--|
B|-0--0--0--0----1---1---1--1--1--0--|
G|-0--0--0--0----0---0---0--0--0--0--|
D|-0--0--0--0----0---0---0--0--0--0--|
A|-2--2--2--2----2---2---2--2--2--2--|
E|-3--3--3--3----3---3---3--3--3--3--|


I hope you like it! XD
Related for Noviembre Sin Ti tab
×
Best way to learn
"Noviembre Sin Ti"