Song name
# A B C D E F G H I J K L M N O P Q R S T U V W X Y Z

Reik - No Se Si Es Amor tab

hahaha
Java! Isa! Cochinas! sisisi!
Emm para los otros aver si les sirve el solo xP
****Joelmistabs**** (Joel) XD
Solo:

e ------------------------------------------------|
B ------------------------------------------------|
G ---------5/7----5/7---7/9-7---------------------|
D -0-2-4-5----5-4----4-------9-7-5---7/9-7-5------|
A ---------------------7-----------7--------------|
E ------------------------------------------------|

e -------------------------------------------------|
B -------------------------------------9/12-10-8-8-|
G --------5/7----5/7---7/9-7-----7/9-7-------------|
D -0-2-4-5----5-4----4-------7/9-------------------|
A ---------------------7---------------------------|
E -------------------------------------------------|
Tap to rate this tab
 
# A B C D E F G H I J K L M N O P Q R S T U V W X Y Z