Song name
# A B C D E F G H I J K L M N O P Q R S T U V W X Y Z

Reincidentes - Mili Kk tab

Aqui teneis la cancion de mili kk de reincidentes
Es muy facil

Empieza haciendo el quinto levanta

e |-----------------------------------------------|
B |-----7-------7---7-------------7---------------|
G |-7-7---7-7-----7---7-------7-7---7-7-----7-----|
D |---------------------7-7-------------7-7-------|
A |-----------------------------------------------|
E |-----------------------------------------------|

Luego hace 4 quintas y asi es toda la cancion

e |-------------------------------------------------|
B |-------------------------------------------------|
G |---7---------------------------------------------|
D |---7----7-----5------7---------------------------|
A |---5----7-----5------7---------------------------|
E |--------5-----3------5---------------------------|
Tap to rate this tab
 
# A B C D E F G H I J K L M N O P Q R S T U V W X Y Z