Song name
# A B C D E F G H I J K L M N O P Q R S T U V W X Y Z

Reindeer Section - 12 Hours It Takes Sometimes tab

============================================================================

Band: The Reindeer Section
Song: 12 Hours It Takes Sometimes
Album: Y'all Get Scared Now, Y'Hear!
Tabbed by: Charlie Lewis
Email: sci-fi-lullaby@hotmail.co.uk

Yet another beautiful song by Reindeer Section

Tuning: NORMAL

  VERSE

e|--------------------------------|
B|--------------------------------|    Let each one ring for 1 beat
G|--------------------------------|
D|--------------------------------|  <--x6 On third start singing
A|4-------2-------3-------3-------|
E|5-------3-------1-------0-------|

  CHORUS!

e|0-------0-------3-------0-------|
B|1-------1-------0-------1-------|    Just follow the lazy strumming
G|0-------0-------0-------2-------|    pattern in the song yes?
D|3-------2-------0-------3-------|
A|3-------3-------2-------3-------|  <--x4
E|x-------x-------3-------x-------|

 Hi then repeat the Verse again and Chorus then continue playing the
    chorus riff as the outro while piano is playing.

    And there's the basic song for you!
    Here are some extra bits:
    This is what the distorted guitar is playing in the background 
    of the outro:

e|-3-------0----------------------|
B|5-------3--------3-------1------|    
G|----------------4-------0-------|    
D|--------------------------------|
A|--------------------------------|  
E|--------------------------------|

    and behold! i tabbed the piano part for the guitar! 
    I must have too much spare time...


e|8----8-8-7----------------------|
B|8----------8----8----8--10------|    
G|9----------9----9----9-----5----|    
D|10-------------------------7----|
A|--------------------------------|  
E|--------------------------------|

        You can mess around with that solo bit if you even play it
	I just thought the tab looked a bit bare without it..

Verse 1

You may be far from me, but I don't need you any less,
It may be cold in your bed, but you know my love is warm, 
With new rules it is hard, when you can't ask anyone,
Who survived the distance test, and has still got strength of love.

Chorus

We'll be here for 30 years, or maybe more,
You don't have to worry that we don't have time.
Let's find a way to meet in the middle of,
Somewhere finer, in our own time, when we can.

Verse 2

We try to hold our heads above the waterline,
At times its hard not to rise to the shit you have to take,
we'll hold our tongues and we'll wait, till our feet will fit their shoes,
Learn to make the choices that all the others never made.

Chorus

We'll be here for 30 years, or maybe more,
You don't have to worry that we don't have time.
Let's find a way to meet in the middle of,
Somewhere finer, in our own time, when we can.

       Enjoy! comments and constructive criticism welcome!

===============================================================================

Tap to rate this tab
# A B C D E F G H I J K L M N O P Q R S T U V W X Y Z