Song name
# A B C D E F G H I J K L M N O P Q R S T U V W X Y Z

Reindeer Section - Strike Me Down tab

============================================================================

Song: Strike Me Down
Artist: The Reindeer Section
Album: Son of Evil Reindeer
Tabbed by: Charlie Lewis
Email: sci-fi-lullaby@hotmail.co.uk

Tuning: STANDARD
   CAPO ON SECOND FRET!!
   TAB IS RELATIVE TO CAPO!

	Another great song by Reindeer Section!! This tab isn't really what
	the guitar plays but incorporates much of the piano part into it
	as well so anyway I think it sounds better!
	Tell me what you think. This is just the timings for chord changes
	and the chords themselves so get the strumming pattern from the song yeh?!

INTRO AND VERSES

   1   2   3   4    1   2   3   4    1   2   3   4    1   2   3   4   
e||0---------------|0-------0-------|0---------------|----------------||
B||2---------------|3-------2-------|3---------------|----------------||
G||2---------------|2-------2-------|2---------------|----------------||
D||2---------------|2-------2-------|0---------------|----------------||
A||0---------------|0-------0-------|0---------------|----------------||
E||x---------------|x-------x-------|x---------------|----------------||


   1   2   3   4    1   2   3   4    1   2   3   4    1   2   3   4   
e||0---------------|2---------------|2---------------|----------------||
B||2---------------|2---------------|1---------------|----------------||
G||1---------------|2---------------|2---------------|----------------||
D||2---------------|4---------------|0---------------|----------------||
A||0---------------|0---------------|x---------------|----------------||
E||x---------------|x---------------|x---------------|----------------||



CHORUS!  Strum these chords

   1   2   3   4    1   2   3   4    1   2   3   4    1   2   3   4   
e||0---------------|----------------|2---------------|----------------||
B||2---------------|----------------|1---------------|----------------||
G||1---------------|----------------|2---------------|----------------||
D||2---------------|----------------|0---------------|----------------||
A||0---------------|----------------|x---------------|----------------||
E||x---------------|----------------|x---------------|----------------||


	WOW here's the bass tab or what I could transcribe of it! Bass only 
        features in the Chorus.

TUNING: STANDARD
        NO CAPO duh


   1   2   3   4    1   2   3   4    1   2   3   4    1   2   3   4   

G||----------------|4---1-----------|----------------|----------------||
D||1---------------|--------1-------|----------------|--------1---2---||
A||----------------|------------4---|2---------------|2---4-----------||
E||----------------|----------------|----------------|----------------||

	Repeat with Chorus

Lyrics! too

I always think of someone else before I think of you
I always take the easy way before I struggle with it
Cant you see I have no choice other than to leave you
All these years Iv lost my voice shouting over nothing

Never will be easy to hear babe
But you have got nothing to fear babe
Just think of all the things that Iv done to you
Anytime you wanna be bad girl

I havent noticed much has changed, drinkin every day now
Used to hope the phone would ring, now im glad it doesnt
Loving someone's hard enough but leaving them is torture
Dont think i dont think of you now, im with you every day dear.

Never will be easy to hear babe
But you have got nothing to fear babe
Just think of all the things that Iv done to you
Anytime you wanna be bad girl

Enjoyyyy! Please rate! comments/constructive criticism welcome!!

   
===============================================================================
Tap to rate this tab
# A B C D E F G H I J K L M N O P Q R S T U V W X Y Z