Song name
# A B C D E F G H I J K L M N O P Q R S T U V W X Y Z

Reindeer Section - Cold Water tab

COLD WATER                                   by THE REINDEER SECTION

capo 1

VERSE 4X
e||------------------------------------------------------0---------|
B||------0---------------0---------------0-----------------0-------|
G||----2---2-----------2---2-----------2---2-----------2-----2---2-|
D||--2-------2---0---0-------0---0---0-------0---0---0---------0---|
A||0-----------0---2-----------2---4-----------4---2---------------|
E||----------------------------------------------------------------|

CHORUS 2X
e||------------------------------------------------------0---------|
B||------0---------------0---------------------------------0-------|
G||----2---2-----------2---2-------------1-------------2-----2---2-|
D||--2-------2---0---0-------0---0-----2---2---------0---------0---|
A||0-----------0---2-----------2-----2-------2---2-----------------|
E||--------------------------------0-----------0---2---------------|

CHORDS FOR CHORUS         
e||-------------------|
B||-------------------|
G||---2---1---1---2---|
D||---2---2---2---0---|
A||---0---0---2---0---|
E||-----------0---2---|
     A5 Amaj7 E   D
Tap to rate this tab
# A B C D E F G H I J K L M N O P Q R S T U V W X Y Z