Song name
# A B C D E F G H I J K L M N O P Q R S T U V W X Y Z

Reindeer Section - Where I Fall tab

reindeer section - where i fall (from 'son of evil reindeer')
tabbed by: paul wilson
email: paulwilson@blueyonder.co.uk

a simple, beautiful song

capo 3rd fret

verse bit
e|-----0-----0---------2-----2------|
B|-----1-----1---------3-----3------|
G|---0-----0-----2---2-----2-----2--|
D|-0-----0-----0---0-----0-----0----|
A|----------------------------------|
E|----------------------------------|

chorus bit
e|-------3-----3------(s)-----7-|
B|-------3-----3------(s)-----7-|
G|-----0-----0-----0--------0---|* hammer on and open g  close together
D|------------------------------|^slide 3 > 7 A B & e,  loud on the cd
A|-0h2-----3-----3---3(s)7------|
E|------------------------------|
    ****             ^^^^^  

end bit
e|----7-----5-----3-----3--|
B|----7-----5-----3-----3--|
G|-------------------------|
D|-------------------------|
A|-7-----5-----3-----3-----|
E|-------------------------|

thanks to jeremy folland for a couple of corrections, now updated

any problems/corrections/requests etc feel free to email 
up with the reindeer section! down with snow patrol!
Tap to rate this tab
# A B C D E F G H I J K L M N O P Q R S T U V W X Y Z