Song name
# A B C D E F G H I J K L M N O P Q R S T U V W X Y Z

Reindeer Section - Cold Water tab

Help us improve GuitareTab! Take a short survey!
-------------------------------------------------------------------------------
			     CARTWHEELS - The Reindeer Section
-------------------------------------------------------------------------------
Tabbed by: Jamie Wightwick
Email: 

Tuning: standard tuning

I can only assume the reason no one has tabbed this yet is that the song is easy enough
to work out for anyone even mildy competant with a guitar. But hey, we're all newbies
once right? Someone might find it useful. Lovely, folky and simple number to play.

Only play the strings noted, obv.

e|--------------------------------------------------------0-----------|
B|--------0---------------0---------------0-----------------0---------|
G|------2---2-----------2---2-----------2---2-----------2-----2-------|
D|----2-------2---2---0-------0---0---0-------0---0---0---------0-----|
A|--0-----------0---2-----------2---4-----------4---2-------------2---|
E|--------------------------------------------------------------------|

That's it! Just repeat throughout the song. Enjoy!


===============================================================================
Related for Cold Water tab