Song name
# A B C D E F G H I J K L M N O P Q R S T U V W X Y Z

Reindeer Section - Cartwheels tab

Artists: Reindeer Section
Title: Cartwheels
Tabbbed and Submitted by Justin Cheong

Note:
- Standard Tuning EADGBe
- Not sure if Bridge actually Starts with A or D.

INTRO & VERSE

e----------------------------------------------------|
B----------------------------------------------------|
G----1--1--1--1--1--1--1--1--1--1--1--1--1--1--1--1--|
D----------------------------------------------------|
A--0--0--0--0--0--0--0--0----------------------------|
E--------------------------0--0--0--0--0--0--0--0----|

                           i'm doin cartwheels..........

BASS NOTE 00:18mins

A E A E A E...............


CHORUS Fill 00:19mins


e------7-------7-------7-------7---|
B----9---9---9---9---9---9---9---9-|
G--9-------9-------9-------9-------|   X4
D----------------------------------|
A----------------------------------|
E----------------------------------|


BRIDGE 01:52mins

      A          D       E
It'll all tie me up into knots
      A          D       E
It'll all tie me up into knots


END with INTRO
Tap to rate this tab
# A B C D E F G H I J K L M N O P Q R S T U V W X Y Z