Song name
# A B C D E F G H I J K L M N O P Q R S T U V W X Y Z

Reindeer Section - Last Song On The Blue Tape tab

Artist: Reindeer Section
Title: Last Song on the Blue Tape
Tabbbed and Submitted by Justin Cheong

Note:
- Standard Tuning EADGBe

INTRO

e----0---0-------------------------------------------|
B----3---3-------------------------------1p0---0-----|
G----------0---2----2--------------------------------|
D--0----0------2----2--0---2----2-------2----2----2--|
A------------0----0--------2----2--0---3--------3----|
E------------------------0----0----------------------|


e----0---0-------------------------------------------------------------|
B----3---3-------------------------------1p0---0-----------1p0---0-----|
G----------0---2----2--------------------------------------------------|
D--0----0------2----2--0---2----2-------2----2----2-------2----2----2--|
A------------0----0--------2----2--0---3--------3----0---3--------3----|
E------------------------0----0----------------------------------------|


VERSE 00:19mins

e----0---0-------------------------------------------|
B----3---3-------------------------------1p0---0-----|
G----------0---2----2--------------------------------|  X4
D--0----0------2----2--0---2----2-------2----2----2--|
A------------0----0--------2----2--0---3--------3----|
E------------------------0----0----------------------|


e----0---0-------------------------------------------------------------|
B----3---3-------------------------------1p0---0-----------1p0---0-----|
G----------0---2----2--------------------------------------------------|
D--0----0------2----2--0---2----2-------2----2----2-------2----2----2--|
A------------0----0--------2----2--0---3--------3----0---3--------3----|
E------------------------0----0----------------------------------------|

INSTRUMENTAL  00:53mins

e----0---0---------------------------------------------|
B----3---3-------------------------------1p0--1p0---3--|
G----------0---2----2-----------------------------2----|
D--0----0------2----2--0---2----2-------2--------------|
A------------0----0--------2----2--0---3---------------|
E------------------------0----0------------------------|
Tap to rate this tab
# A B C D E F G H I J K L M N O P Q R S T U V W X Y Z