Song name
# A B C D E F G H I J K L M N O P Q R S T U V W X Y Z

Reindeer Section - Grand Parade tab

-------------------------------------------------------------------------------
			     GRAND PARADE - Reiendeer Section
-------------------------------------------------------------------------------
Tabbed by:Gregor Young
Email:chumpcheese@hotmail.com

Tuning: Standard McRegular

e|-0---0----0---0---0---0---0---0---0---0---0---0----0---0----0---0---||
B|---1---1----1---1---1---1---1---1---1---1---1---1----3---3----1---1-||
G|--------------------------------------------------------------------||
D|----------3---3-----------3---3-----------3---3--/-5---5--\-3---3---||
A|-3---3------------3---3-----------3---3-----------------------------||
E|--------------------------------------------------------------------||
        I love the way  I feel so calm Although I can hardly wait


etc all the way through.  when it picks up (with the drums and piano) you can just pick 
the same chords to make it sound similar to the piano melody.
beautiful song, very simple.
Tap to rate this tab
 
# A B C D E F G H I J K L M N O P Q R S T U V W X Y Z