Song name
# A B C D E F G H I J K L M N O P Q R S T U V W X Y Z

Reindeer Section - Ill Be Here When You Wake tab

Artist: The Reindeer Section
Song: I'll be here when you wake
Finally tabbed by: Charlie Lewis

Iv been looking everywhere for this tab for literaly 2 years, and now i think about it 
should have made this a lot sooner. It didn't sound right for about a year then i 
CAPO ON 5TH FRET!!!!
so I tabbed it. I havent bothered with the timing much cause i figured if your tryin to 
it you probably know how the song goes....

CAPO ON 5TH - Tab is relative to the capo

Ace song
Standard Tuning

Intro/Verse
|----------------------0--0--0-|       Repeat the neccessary amount of times
|--------1------0------0--0--0-|       Throw in some open top e's and
|--0---0-0------0-0--0-0--0--0-|       dont worry about muting all the other
|--2---2-2-0--0-0-3--3---------|       strings. apart from bottom E
|--3---3---2--2---0--0---------|
|--x---x---3--3---x--x---------|


Chorus
|--0-0-1-1-------1-1-------1-1---0-0-0-0-|
|--1-1-3-3---1-1-3-3---1-1-3-3---1-1-1-1-|
|--0-0-2-2---0-0-2-2---0-0-2-2---0-0-0-0-|
|--2-2-0-0---2-2-0-0---2-2-0-0---2-2-2-2-|   Times 2
|--3-3-------3-3-------3-3-------3-3-3-3-|   listen to the strumming
|--x-x-------x-x-------x-x-------x-x-x-x-|   pattern from the song

......Post chorus
|-0-0-0-0-----------0-0-0-0-|
|-1-1-1-1--0-0-0-0--3-3-3-3-|
|-0-0-0-0--0-0-0-0--2-2-2-2-|
|-2-2-2-2--2-2-2-2--0-0-0-0-|    Once then back to Intro bit with the
|-3-3-3-3--2-2-2-2----------|    flutey thing
|----------0-0-0-0----------|


This is the flute bit but i tabbed it for guitar! how crazy am i?!
|-----3-3------------------------------------------------1-1-1h3-0-|
|--1-----1h3p1-----------------------3---------------------------1-|
|-------------4h5p4-2-----2h4-5---4h5------5p4--5p4-2--------------|
|------------------------------------------------------------------|
|------------------------------------------------------------------|
|------------------------------------------------------------------|

Look I even did the lyrics! woo

	Leave my bed warm and I'll breathe in your smell,
	You shouldn't tell a single soul you know it's red.
	I wanna shout it out it's killing me to hold,
	Hold it in my head when there's barely room for me.

	And I say your name in the darkness like you could, be, there.
	And I miss you more when I'm coming down and I fear, the, door.

	Leave my brain in knots that I'll never quite unfurl,
	I can't make head nor tail of this fizzing on my tongue.
	Both my hands are tied so I can't pick up the phone,
	Even if I wanted to but god i don't.

	And I say your name in the darkness like you could, be, there.
	And I miss you more when I'm coming down and I fear, the, door.
Tap to rate this tab
# A B C D E F G H I J K L M N O P Q R S T U V W X Y Z