Guitaretab - guitar tabs
Song name
# A B C D E F G H I J K L M N O P Q R S T U V W X Y Z

Reinhart Django - Georgia On My Mind tab

Georgia On My Mind - Hoagy Carmichael

as being played by Django Reinhard, 1930 (136 bmp)



   Eb                    G7                   Cm                             
E|--------------------|--------------------|--------------------------------|
B|-8----10b-----------|--7r-------6~-------|----8h9p8-7/8-9-8/13----15--16--|
G|--------------------|--------------------|--------------------------------|
D|--------------------|--------------------|--------------------------------|
A|--------------------|--------------------|--------------------------------|
E|--------------------|--------------------|--------------------------------|


  Abm6                         Eb          Cm               
--13----11------------------|------------------------------|
------------12--------------|--11------13--15--15--15--13--|
----------------13------12--|------------------------------|
----------------------------|------------------------------|
----------------------------|------------------------------|
----------------------------|------------------------------|


  Fm          Bb7          Eb                                        
------16----------------|----18-------17-------16-------15-----13---|
------------------------|-------------------------------------------|
--13----------15~-------|-------15-14----14-13----13-12-----10----9-|
------------------------|-------------------------------------------|
------------------------|-------------------------------------------|
------------------------|-------------------------------------------|


  Fm               Bb7            Eb                    
----11-----10----8----7----6---|-----------------------|
-------------------------------|------8--8--11--7r-----|
--8----8-7-----5----4----3-----|-----------------------|
-------------------------------|-----------------------|
-------------------------------|-----------------------|
-------------------------------|-----------------------|


  G7                          Cm                          
--------------------7-10-8~|----------8--10--11--12--13~-|
------6-----------8--------|-----------------------------|
----------------7----------|-----------------------------|
-------------9-------------|-----------------------------|
---------------------------|-----------------------------|
---------------------------|-----------------------------|


            Abm6           Eb          Cm             Fm           Bb7     
------11----7-----------|--------------------------|----------------------|
---------------9--------|--------------------------|----------------------|
------------------8-----|--------------7--7--7--5--|----------------------|
---------------------9--|--8h9p8-------------------|--6------5--8--4~-----|
------------------------|--------------------------|----------------------|
------------------------|--------------------------|----------------------|


  Eb         Abm6                   Eb        G         
-----------------------------11--|------------3--------|
--------------------------12-----|--11~-------3--------|
------------------8-10/13--------|------------4--------|
----------------9----------------|------------5--------|
------6--7/8-11------------------|---------------------|
---------------------------------|---------------------|

[ Tab from: http://www.guitaretab.com/r/reinhart-django/138605.html ]
  Cm                                              G7     
-------------------------|------------------------------|
--------4--4--6--6--7~---|--4-------3--4--3h4p3---------|
--5--5-------------------|-------5----------------0--0--|
-------------------------|------------------------------|
-------------------------|------------------------------|
-------------------------|------------------------------|


  Cm                          Cm6                     Cm                     
-------------------------|----6-----5--6--5~-------|------------------------|
--------4--4--6--6--7~---|-------8-----------------|--------4--4--6------4/-|
--5--5-------------------|-------------------------|--5--5------------------|
-------------------------|-------------------------|------------------------|
-------------------------|-------------------------|------------------------|
-------------------------|-------------------------|------------------------|


          D7               Gm               E            
------------------------|-----------------------6--6-----|
----------15------10-13-|--11-----------------6----------|
------------------------|------12-----------6----------6-|
------------------------|---------12-8--0-7--------------|
------------------------|--------------------------------|
------------------------|--------------------------------|


  Fm            Bb7          Eb                   
------4~--------2~---6~---|----------------------|
----6---------3-----------|------8--8--10~-------|
--5---------3-------------|----------------------|
----------4---------------|----------------------|
--------------------------|----------------------|
--------------------------|----------------------|


  G7                             Cm                          
-----------------------7/-10--|--8~-------8--9--10--11--12--|
--8--7--6-----0-----8---------|-----------8--9--10--11--12--|
-----------7-----7------------|-----------8--9--10--11--12--|
------------------------------|-----------7--8--9---10--11--|
------------------------------|-----------------------------|
------------------------------|-----------------------------|


  Abm6                  Eb            Cm                
--13--------1--------|----6--------------------------8~|
--13--------1--------|-------8------------------8-10---|
--13--------1--------|----------8-----0-------7--------|
--12-----------------|-------------8----0---9----------|
---------------------|--------------------9------------|
---------------------|---------------------------------|


  Fm              Bb7              Eb          Cm            
--------------------------------|---------------------------|
------------------12----11------|------------------------8--|
------10--12--13----------------|-----------------8--10-----|
----------------------------12--|--13~-----13/-9------------|
--------------------------------|---------------------------|
--------------------------------|---------------------------|


  Fm         Bb7        
-------------6~-------||
----------------------||
--8~---5--5-----------||
----------------------||
----------------------||
----------------------||



************************************************************
Just been putting together some songs for a gig. Haven't seen it on the
net, yet, Hope you'll enjoy it!
Related for Georgia On My Mind tab