Song name
# A B C D E F G H I J K L M N O P Q R S T U V W X Y Z

Reinhart Django - Appelle Direct tab

Happy sounding fun silly Django Polka in C Major...
32-Bar AABA form...all A sections are C Major, B is C# Major
questions, comments, hatemail...  monkeywheet@yahoo.com


INTRO....
1   2   3   4   1   2   3   4   1   2   3   4   1   2   3   4    
----------------------------------------------------------------|
4----5----------4----5----------4----5----------4----5----------|
4----5----------4----5----------4----5----------4----5----------|
4----5----------4----5----------4----5----------4----5----------|
2----3----------2----3----------2----3----------2----3----------|
----------------------------------------------------------------|

1   2   3   4   1   2   3   4   1   2   3   4   1   2   3   4    
----------------------------------------------------------------|
4----5----------4----5----------4----5----------4----5----------|
4----5----------4----5----------4----5----------4----5----------|
4----5----------4----5----------4----5----------4----5----------|
2----3----------2----3----------2----3----------2----3----------|
----------------------------------------------------------------|


====A=====
1   2   3   4   1   2   3   4   1   2   3   4   1   2   3   4    
------------4-5-----------------------------4-5-----------------|
--------4-5-----4-5---------------------4-5-----4-5-------------|
----4-5-------------4-5-------------4-5-------------4-5---------|
4-5---------------------4-------4-5---------------------4-------|
----------------------------------------------------------------|
----------------------------------------------------------------|

1   2   3   4   1   2   3   4   1   2   3   4    1   2   3   4    
------------4-5-----------------------------8-10-11----15-------|
--------4-5-----4-5---------------------7-10---------13---------|
----4-5-------------4-5---------------8-------------------------|
4-5---------------------4---------7-10--------------------------|
--------------------------------9-------------------------------|
----------------------------------------------------------------|

====A====
1   2   3   4   1   2   3   4   1   2   3   4   1   2   3   4    
------------4-5-----------------------------4-5-----------------|
--------4-5-----4-5---------------------4-5-----4-5-------------|
----4-5-------------4-5-------------4-5-------------4-5---------|
4-5---------------------4-------4-5---------------------4-------|
----------------------------------------------------------------|
----------------------------------------------------------------|

1   2   3   4   1   2   3   4   1   2   3   4    1   2    3    4    
------------4-5-----------------------------8-10-11--10-8h10p8--|
--------4-5-----4-5---------------------7-10--------------------|
----4-5-------------4-5---------------8-------------------------|
4-5---------------------4---------7-10--------------------------|
--------------------------------9-------------------------------|
----------------------------------------------------------------|

====B====
1   2   3   4   1   2   3   4   1   2   3   4   1   2   3   4    
------------5-6-----------------------------5-6-----------------|
--------5-6-----5-6---------------------5-6-----5-6-------------|
----5-6-------------5-6-------------5-6-------------5-6---------|
5-6---------------------5-------5-6---------------------5-------|
----------------------------------------------------------------|
----------------------------------------------------------------|

1   2   3   4   1   2   3   4   1   2   3   4   1   2   3   4    
------------5-6-----------------------------5-6-------------4-5-|
--------5-6-----5-6---------------------5-6-------------4-5-----|
----5-6-------------5-6-------------5-6-------------4-5---------|
5-6---------------------5-------5-6-------------4-5-------------|
----------------------------------------------------------------|
----------------------------------------------------------------|

====A====
1   2   3   4   1   2   3   4   1   2   3   4   1   2   3   4    
------------4-5-----------------------------4-5-----------------|
--------4-5-----4-5---------------------4-5-----4-5-------------|
----4-5-------------4-5-------------4-5-------------4-5---------|
4-5---------------------4-------4-5---------------------4-------|
----------------------------------------------------------------|
----------------------------------------------------------------|

1   2   3   4   1   2   3   4   1   2   3   4    1   2   3   4    
------------4-5-----------------------------8-10-11--10--8/-----|
--------4-5-----4-5---------------------7-10-----11--10--8/-----|
----4-5-------------4-5---------------8----------11--10--8/-----|
4-5---------------------4---------7-10-----------10--9---7/-----|
--------------------------------9-------------------------------|
----------------------------------------------------------------|

Tap to rate this tab
# A B C D E F G H I J K L M N O P Q R S T U V W X Y Z