Song name
# A B C D E F G H I J K L M N O P Q R S T U V W X Y Z

Reinhart Django - Eye Cry For You tab

#----------------------------------PLEASE NOTE---------------------------------#
#This file is the author's own work and represents their interpretation of the #
#song. You may only use this file for private study, scholarship, or research. #
#------------------------------------------------------------------------------##

                                 EYE CRY FOR YOU
                           As recorded by R.R. Kullmam

Words by dedication to my late gramother Alice E RossMusic by Bob Kullman
Arranged by Bob Kullman
Transcribed by Bob Kullman

Gtr I (E A D G B E) - 'Untitled'
Gtr II (E A D G B E) - 'Untitled'9:15 AM 11/21/2003

  Gtr I
                    |--------6--------|
  E Q  E Q  E   Q   S  S  S  S  S  E  W
|-------------|-------------------!2-!0-----|
|-------------|----------------!1-----------|
|-------------|-------------!2--------------|
|-2----2----2-|----------!1-----------------|
|---0----0----|-0-----!0--------------------|
|-0----0----0-|----!0-----------------------|


  E Q  E Q  Q    Q  S S S S S E H
|--------------|--------------2-0----|
|--------------|------------1--------|
|--------------|----------2----------|
|-2----2----2--|--------1------------|
|---0----0-----|-0----0--------------|
|-0----0----0--|----0----------------|


 4/4
  Gtr I
|-----|
|-----|
|-----|
|-----|
|-----|
|-----|


  Q=131
   Q  Q  Q  Q  Q  Q  H    Q  Q  Q  E S S S S S S S S S S Q  Q  Q  Q  Q   E E Q  Q  Q   E E Q  Q
|-^1--3-----------------------------------------------------4-----2-----!4-4----5-----!4-4----5----|
|-^0-----3--6-----------------------------------------------5-----1-----!5-5----4-----!5------4----|
|-^1-----------2--5-----------------------------------------5-----2-----!5------5-----!5------5----|
|-^0-----------------3----4--5------------------------------4-----1-----!4------4-----!4------4----|
|-^1-----------------3----------4--6-5-4-3-2-1-0---------------0-------------0-------------0-------|
|--------------------1---------------------------4-3-2-1-0-----------4-------------4---------------|
|
| Gtrs I,Gtr II
|--------------------------------------------------------------------------------------------------|
|--------------------------------------------------------------------------------------------------|
|--------------------------------------------------------------------------------------------------|
|--------------------------------------------------------------------------------------------------|
|--------------------------------------------------------------------------------------------------|
|--------------------------------------------------------------------------------------------------|


                           ~~
  Q  E E Q   H     E E  E  Q   H     H     E  E  E  E  E  E  E  E  E  E E E H    E E E E E E E E E E  H
|----5-5-----8-------8-10-12--18----13----16-15-14-13-12-11-10-12-11-------------------3-6-5-2-------!4----|
|----6-6----10----11-------------------------------------------------11-7---8------2-5---------3-2-1-!5----|
|----7-7-----9------------------------------------------------------------8-8----3-------------------!5----|
|------------8--------------------------------------------------------------7------------------------!4----|
|-0------0------------------------------------------------------------------8------------------------------|
|----------------------------------------------------------------------------------------------------!0----|
|
|----------------------------------------------------------------------------------------------------------|
|----------------------------------------------------------------------------------------------------------|
|----------------------------------------------------------------------------------------------------------|
|----------------------------------------------------------------------------------------------------------|
|----------------------------------------------------------------------------------------------------------|
|----------------------------------------------------------------------------------------------------------|


  Q
  |
  /

  Q  Q  Q  E E   Q  Q  Q  E E   Q  E E Q  E E Q   H
|----2-----4-4-|----5-----4-4-|----5-5----5-5-----8----|
|----1-----5-5-|----4-----5-5-|----4-4----6-6----10----|
|----2-----5-5-|----5-----5-5-|----5------7-7-----9----|
|----1-----4-4-|----4-----4-4-|----4--------------8----|
|-0------------|-0------------|-0------0------0--------|
|-5-----4------|-------4------|------------------------|
|
|--------------|--------------|------------------------|
|--------------|--------------|------------------------|
|--------------|--------------|------------------------|
|--------------|--------------|------------------------|
|--------------|--------------|------------------------|
|--------------|--------------|------------------------|


  W
  |
  /

  S  S  S S  S  S S  S  E  Q  S S S S S S S S S  S..  E..  E..  E..  E.. Q..    H..       Q    Q     Q
|-----------------8-10-11-!0--------------1-5-8-12---12---12---10---12---8-----12------------------------|
|---------8-10-11---------!3------------3------------11---11----9---11---7-----12------------------------|
|-8-10-11-----------------!2----------2--------------11---11----9---11---7-----11------------------------|
|-------------------------!3--3-0-2-3----------------10---10----8---10---6-----11------------------<12>--|
|-------------------------!0----------------------------------------------------0------------<12>--------|
|-------------------------!0----------------------------------------------------0---------0--------------|


   S
   |
   /

   Q  Q   Q  Q  Q  Q   H     Q  Q  E E E E E E E E E E E Q  E E E E E E E E E E E E E E E E S S S S S S S S S S S S S S S S S S S S S S S S S S S S S S H     Q   Q  E E  Q  E E Q  E E S S S
|-!5-----!7-----8-----!9----10--9--8-7-6-5--------------------------------6-9-8-7-6-5-4-3-7-6-------------5-8-7-4-------------3-6-5-2-------------1-4-8-7----11--12------!5------2------3-0-4---|
|-!5-----!5-----7-----!7-------------------8-5-6------------9---------5-8---------------------7---------6---------5---------4---------3---------3------------------------!5------3------3-0-3---|
|-!4-----!6-----7-----!8-------------------------5-6--------8-------6---------------------------5-----5-------------4-----3-------------2-----3--------------------------!6------2----0-4---4---|
|-!4-----!5-----6-----!7-----------------------------6-7----9---5-8-------------------------------7-6-----------------6-5-----------------4-3----------------------------!7----0----0-------3---|
|-!0--0--------------------------------------------------7--8-7--------------------------------------------------------------------------------------------------------0-!7--0------------------|
|-!0---------6-----7-------------------------------------------------------------------------------------------------------------------------------------------------0---!5---------------------|


  S S S  S   S  Q  T T T T T T T T T T T T T T T T T T T T T T T T T T T T T T T T T T T T T T T T T T T T T T T  T T T T T T T T T T  T  T  T  T  H     X
|-2h3-2p-0p-h2-^0----------------------------------------------------------------------------0-1-2-3-4-5-6-7-8-9-10-9-8-7-6-5-6-7-8-9-10-11-12-13-14----15----|
|--------------^2----------------------------------------------0-1-2-3-2-1-0-------0-1-2-3-4------------------------------------------------------------------|
|--------------^0--------------------------------------0-1-2-3---------------3-2-3----------------------------------------------------------------------------|
|--------------^2----------------------------0-1-2-3-4--------------------------------------------------------------------------------------------------------|
|--------------^0--1-2-3-4-5-4-3-2-1-0-1-2-3------------------------------------------------------------------------------------------------------------------|
|-------------------------------------------------------------------------------------------------------------------------------------------------------------|


   S  S  S  H     H     H     E  E  E  E  E  E  E  E  E  E  Q  Q  Q   Q   Q  Q  Q  W        W        W        W        H     H      H      H
|-14-12-11-14----11----10----15-14-13-12----------------12-10--7--7--10\--5--------5--------2--------2--------3--------2----(2)----(2)----14----*|
|----------------------------------------13-----------------7--7--8----------6--7--5--------0--------1--------3--------3----(3)----(3)----------*|
|-------------------------------------------14-13-12-11-----7--7--7----------6--6--4--------0--------2--------4--------4----(4)----(4)----------*|
|-----------------------------------------------------------7--7--9----------5--5--4--------0--------1--------4--------4-----2------4-----------*|
|-----------------------------------------------------------------7----------6-----0--------0-----------------5---------------------------------*|
|----------------------------------------------------------------------------------0--------0-----------------3--------2----(2)----(2)----------*|


   Q   Q   Q   Q   H     Q   Q   Q   Q   Q
|-----15------15--12----10--10--10--13\--8----|
|-12------12------11----11--10---9------------|
|-----------------12----10--10--10------------|
|---------------------------------------------|
|---------------------------------------------|
|---------------------------------------------|


   Q  Q  Q   Q   Q  E E E E E E E E E E Q  Q  Q  Q  Q  Q  Q  Q  Q  Q  E Q  H    H    E E E E E E E E E E E E E E E E E E E Q  Q  S S S S S S Q   E E
|-----------10\--5--8-7-4-5--------------------------------------------------------------------------------------2---5-3-2-8--7--7h8p7-6h7-8p7--10-7-|
|-10--8--7------------------5-6--------------------------------------------------------------------------1---4-1---4---------------------------------|
|-------------------------------6-7----------------------------------------3----2--------------------2-----2-----------------------------------------|
|-----------------------------------6-7------------------------------------2----1------------1---4-1---4---------------------------------------------|
|---------------------------------------7--8--9--8--7--8--9--8-----6----3------------0---3-0---3-----------------------------------------------------|
|---------------------------------------------------------------8-----5----3----2------2-------------------------------------------------------------|


|-|----|
|-|----|
|-|----|
|-|----|
|-|----|
|-|----|


  E E E E E E E E   E E E E E E E E   E   H      Q   Q     Q   Q   Q   Q
|-----------------|-----------------|---<12>----!9--^7--|-!5--^7--!5--^3---|
|-9-6-------------|-----------------|-8--12-----!7--^7--|-!5--^5--!3--^3---|
|-----7-4---------|-------------0-7-|----12-----!8------|-!6------!4-------|
|---------6-3-----|-----------0-----|----12-----!7------|-!5------!3-------|
|-------------5-2-|---------2-------|-------------------|------------------|
|-----------------|-4-3-4-3---------|-------------------|------------------|


  Q  Q  Q  Q  Q  H    Q  E E Q
|-2--3--2--0-----2--------------|
|-2--2--1-----3--3----3--2-1-0--|
|-3--3--2-----4--2--------------|
|-2--2--1-----------------------|
|-------0-----------------------|
|-------0-----------------------|


     |--3--|
  Q  S S S E Q  E E E E E  E S  Q  E  H    E H    W        Q  Q   Q  Q  Q  Q
|----------5-----------------8-11--8-10-----------2---------------------------|
|--------5---5----------7-10----------------------3---------------------------|
|------5------------5-7---------------------------3---------------------------|
|----5----------4-7-------------------------------2--------8--9--10--9--8--9--|
|-----------------------------------------------------------------------------|
|-5----------------------------------------0-1----2---------------------------|


   w
   |
   /

                               TP       TPTPTP
   Q  Q  Q  Q  Q  H    Q  H    W        E E E T T T T T T T T T T T T T T T T T T T T T T T W          W        W
|-------------------------------------------------------------------------------------------0--------!12--------0--------*|
|----------------------3--2-----------------------------------------------------------------0--------!12--------0--------*|
|----------------------2--2-----------------------------------------------------------------0--------!11--------2--------*|
|-10--9-----7-----4-------1----1--------1-1-1-1-0-1-2-3-4-5-6-5-4-3-2-1-0-------------------2--------!11--------2--------*|
|--------9-----6-------3--2-----------------------------------------------4-3-2-1-0---------2-------------------0--------*|
|-----------------------------------------------------------------------------------4-3-2-1-0-------------------0--------*|


|-|
|-|
|-|
|-|
|-|
|-|


  H.=H
   W                           W               W            W         W         W         W         W         W          S
   |                           |               |            |         |         |         |         |         |          |
   /                           /               /            /         /         /         /         /         /          /

   |------3-------|
   S  E  E  E  E  H  S S S S S    E Q  Q  Q  Q   Q  Q  Q  Q   H    H    H    H    H    H    H    H    H    H    H     E
|-------------^5----------------------------------------------0----4---------2----0----4---------5----0----4---------!5-------|
|----------^5----^5------5-7-8s==10-8--7--5--5---3--3--2--1---0----5---------1---------5---------4---------5---------!6-------|
|-------^5-----------6-7---------------5-----5------4--------------5---------2---------5---------5---------6---------!7-------|
|----^5--------------------------------7-----4------4--------------4---------1---------4---------4----------------------------|
|--------------------------------------6--------------------------------0-------------------0-------------------0-------------|
|-!5-----------------------------------------4------4---------0-------------------0-------------------0-----------------------|


                                        Q=
  E
  |
  /

  H     H    H    Q  Q   H     W
|-------8----8--------------------------*|
|------10----8--------------------------*|
|-------9----9----7--8---9-----9--------*|
|-------8----8----7--8---9----10--------*|
|-0---------------8--9--10-----9--------*|
|-----------------8--9--10----10--------*|


 1H.=H           Q=90
 5/4
    W        W         W         W
    |        |         |         |
    /        /         /         /

    W        H    H    H    H    Q  Q  Q  Q  H     H
|--!7---------------------------------------------!3----|
|------------8----7----5----7---------------------!0----|
|--!7-----------------------7----6--7--6--4--2----!0----|
|--!5-----------------------7---------------------!0----|
|---------------------------0---------------------!2----|
|--!7---------------------------------------------!3----|


  Q=110
  W          S S S S
             | | | |
             / / / /

  Q  H    Q  Q       Q  Q  Q  Q  Q  Q
|-7------------------------------------|
|----8----5-------------------5--------|
|------------7-------6--7--6-----4--2--|
|--------------------------------------|
|--------------------------------------|
|--------------------------------------|


  Q=110
  H    Q  Q  H    Q  Q  Q  Q  Q  Q  Q  Q  Q  Q  W        Q  Q  Q  Q
|-5---------------------------------------5--3--3----------------------|
|--------------------------7--------5--4--------3--------0--2--3--5----|
|------5--4--5----2--5--4-----5--4--------------4----------------------|
|----------------------------------------------------------------------|
|----------------------------------------------------------------------|
|-2---------------------------------------------3----------------------|


  Q=110
  E
  |
  /

  Q  Q  Q  Q  Q  Q  Q  Q  Q  W        H    H    Q  Q  H    E
|----------------------3--2--2------------------4--5---------*|
|-3--2--5--------3--2--------3------------------------3----3-*|
|----------4--2--------------2--------2----1-----------------*|
|----------------------------0-------------------------------*|
|------------------------------------------------------------*|
|------------------------------------------------------------*|


  E Q  Q  Q  Q  Q  Q  Q  E E Q  Q  Q  Q  Q  W
|-0-2--2--0-----0---------------------------0----|
|------------3-----3--2--0-2-3--2--0--2--0--2----|
|-------------------------------------------0----|
|-------------------------------------------2----|
|-------------------------------------------0----|
|-------------------------------------------0----|


  S  S  S  S S  S S  S  S  S S  S S  S S  S S S S S S  S S S  S S S  S S S  S S S E  E
|-9-10-11-12-8-11-9---------------------------------------------7-8h10p8-7-------------|
|-------------------11-10----------------------------------7-10------------10-8-7------|
|-------------------------12-9---------------------------8------------------------9----|
|------------------------------11-8-----------------7-10----------------------------12-|
|-----------------------------------10-7--------6-9------------------------------------|
|----------------------------------------10-8-7----------------------------------------|


  &
  &
   W                                        W
   |                                        |
   /                                        /

   S  S  S  S  S  S  S  S  S  S  S  S  S  H     H     S  S  S  S  S  E  E  E  E  E  E  E  E  E S S S S S
|-------------------------------------12-16----17----------------13-14-------------15-13-12-10-9-8-7-6-5-|
|----------------------------------14----------------------13-14-------15-14-13-12-----------------------|
|-------------------------------14-------------------13-14-----------------------------------------------|
|-11-10----------------11-12-14--------------------------------------------------------------------------|
|-------12-11-10-11-12-----------------------------------------------------------------------------------|
|--------------------------------------------------------------------------------------------------------|


  W         W         W         W
  |         |         |         |
  /         /         /         x

                                                                                                                                                   ~~~~~~~~~~~~~~~~~~~~~~~~~~~~~~~~~~~~~~
                                                             |-----------------3------------------|
  H    H    H    H    H    H    H    H    H    S S S S S S S S S S S S S S S S S S S S S S S S S  W      W        W        H    H    H    W        W        W        W        W        W
|-0----3----4---------5-------------------5----5-4-3-2-1-2-1-0---------------0-----3-----6-----9-12-----12--------3--------2----0------------------2--------0--------1--------0--------0--------*|
|-0---------5---------4---------7---------5--------------------------------0-----2-----5-----8---11-----11--------3------------------3----2--------1--------0--------0--------0--------0--------*|
|-0---------5---------5----0----6----6----4------------------------------3-----3-----6-----9-----12-----12--------x--------------------------------2--------0--------1--------0--------0--------*|
|-2---------4---------4---------5----5----4--------------------------2-5-------------------------11-----12--------0--------------------------------1--------2--------0--------2--------2--------*|
|-2--------------0------------------------0----------------------1-4------------------------------0------0--------2--------------------------------0--------2-----------------2--------2--------*|
|-0-------------------5----3----6----5----0------------------0-3----------------------------------0------0--------3--------------------------------2--------0--------1--------0--------0--------*|


  Q  Q  Q  Q
|---------------|
|----------4----|
|-------3-------|
|----5----------|
|---------------|
|-3-------------|


          &&
  W
  Q  Q  E H     Q   W        W
|-2--5--8-7----11--12--------5----|
|----------------------------5----|
|----------------------------4----|
|----------------------------4----|
|----------------------------0----|
|-0-------------------------------|
  W


Duration Legend
---------------
W - whole; H - half; Q - quarter; E - 8th; S - 16th; T - 32nd; X - 64th; a - acciaccatura
+ - note tied to previous; . - note dotted; .. - note double dotted
Uncapitalized letters represent notes that are staccato (1/2 duration)
Irregular groupings are notated above the duration line
Duration letters will always appear directly above the note/fret number it represents the
duration for.  Duration letters with no fret number below them represent rests.  Multi-
bar rests are notated in the form Wxn, where n is the number of bars to rest for.  Low
melody durations appear below the staff

Tablature Legend
----------------
 h   - hammer-on
 p   - pull-off
 b   - bend
 pb  - pre-bend
 r   - bend release (if no number after the r, then release immediately)
 /\  - slide into or out of (from/to "nowhere")
 s   - legato slide
 S   - shift slide
  - natural harmonic
[n]  - artificial harmonic
n(n) - tapped harmonic
 ~   - vibrato
 tr  - trill
 T   - tap
 TP  - trem. picking
 PM  - palm muting
\n/  - tremolo bar dip; n = amount to dip
 \n  - tremolo bar down
 n/  - tremolo bar up
/n\  - tremolo bar inverted dip
 =   - hold bend; also acts as connecting device for hammers/pulls
 <>  - volume swell (louder/softer)
 x   - on rhythm slash represents muted slash
 o   - on rhythm slash represents single note slash

Misc Legend
-----------
 |  - bar
||  - double bar
||o - repeat start
o|| - repeat end
*|  - double bar (ending)
 :  - bar (freetime)
 $  - Segno
 &  - Coda
Tempo markers -  = BPM(8/16=s8/s16), where s8 = swing 8ths, s16 = swing 16ths


***************************************************************************************
* Generated using Power Tab Editor by Brad Larsen - http://powertab.guitarnetwork.org 
Tap to rate this tab
# A B C D E F G H I J K L M N O P Q R S T U V W X Y Z