Guitaretab - guitar tabs
Song name
# A B C D E F G H I J K L M N O P Q R S T U V W X Y Z

Reino Fungi - Sinto tab

REINO FUNGI - "Sinto"
Disco: Reino Fungi e o fantástico clube do chá dançante [2006]
Tablatura: Mateus Pranzetti

INTRO (tocada 3x)
e---0-----0-------------2------|
B-----0-----0---------2---2----|
G-------1-----1-----2-------2--| 
D-2-------------2-4------------| 
A------------------------------|
E------------------------------|

 E   F#m             E
Sinto que preciso viver
  F#m         E
Que preciso amar
    F#m
Não vale se esconder
     E             F#m
Eu irei lhe encontrar
 E          F#m        E  F#m
Nem mesmo você pode mudar
                                                      RIFF (tremolo)
 C#m                   G#m + RIFF                  G-----------------------|
Não importa para onde vou                          D-6-4-------------------|
 C#m                                 G#            A-----7-6-4--7-9-7-6-4--|
O importante é que eu não posso mais parar         E-----------------------|

 E           F#m                 E
O mundo não acaba por falta de amor
 F#m                 E
Nós que vivemos sem ter calor
 F#m                E           F#m
Aqueça sua alma por favor, garota.

SOLO
e-0-----0--------------------0-----0---------------------0-----0--------------4-2--------------------|
B---0-----0----------0-2-0-----0-----0----------0-2-0------0-----0--------0-2-----5-4-2-0------------|
G-----1-----1------2-------2-----1-----1------2-------2------1-----1----2-----------------2----------|
D-------------2--4-----------------------2--4------------------------2----------------------4-4-4-2--|
A----------------------------------------------------------------------------------------------------|
E----------------------------------------------------------------------------------------------------|
[ Tab from: http://www.guitaretab.com/r/reino-fungi/71887.html ]
e----------------------------------------------------------------|
B----------------------------------------------------------------|
G----------------------------------------------4-2---------------|
D-----------------------------2--------------------4-2-----------|
A--2~-2-2-2s4--4-4s2--2-2-2s4---4-2--2-2s4--4s2------------------|
E----------------------------------------------------------------|

 E   F#m             E
Sinto que preciso viver
  F#m         E
Que preciso amar
    F#m
Não vale se esconder
     E             F#m
Eu irei lhe encontrar
 E          F#m        E  F#m
Nem mesmo você pode mudar


 C#m                              G#m + RIFF
Você faz coisas incríveis sem perceber
 C#m                                          G#
Não deixe que seu corpo cresça mais que sua alma.


 E           F#m                 E
O mundo não acaba por falta de amor
 F#m                 E
Nós que vivemos sem ter calor
 F#m                E           F#m
Aqueça sua alma por favor, garota.


INTRO 2x (tocada um pouco mais rápida)

 (PONTE)   | 2x
Garota!    | 

E  F#m (tocada com tremolo) 4x sendo que ná última vez toca-se somente E.

Final:
e--7-7-7-7-7--5-5-5-5-5--4-4-4-4-4--2-2-2-2-2-|
B--7-7-7-7-7--5-5-5-5-5--5-5-5-5-5--2-2-2-2-2-|
G---------------------------------------------|
D---------------------------------------------|
A---------------------------------------------|
E---------------------------------------------|

  Garota, vou te encontrar, garota
e--7-7-7-7-7--5-5-5-5-5--4-4-4-4-4--2-2-2-2-2-|
B--7-7-7-7-7--5-5-5-5-5--5-5-5-5-5--2-2-2-2-2-|
G---------------------------------------------|
D---------------------------------------------|
A---------------------------------------------|
E---------------------------------------------|

e--7-7-7-7-7--5-5-5-5-5--4-4-4-4-4--2-2-2-2-2-|
B--7-7-7-7-7--5-5-5-5-5--5-5-5-5-5--2-2-2-2-2-|
G---------------------------------------------|
D---------------------------------------------| 
A---------------------------------------------|
E---------------------------------------------|

e--7-7-7-7-7--5-5-5-5-5--4-4-4-4-4--2-2-2-2-2--0--|
B--7-7-7-7-7--5-5-5-5-5--5-5-5-5-5--2-2-2-2-2--0--|
G----------------------------------------------1--|
D----------------------------------------------2--|
A----------------------------------------------2--|
E----------------------------------------------0--|
Related for Sinto tab
Advertisement will be closed in 10 seconds