Song name
# A B C D E F G H I J K L M N O P Q R S T U V W X Y Z

Rekevin - My Beloved Water tab

Rekevin - My Beloved Water

[Intro]

    Dm         Bb          Dm         Bb
e|------------------------------------------------------------|
B|-------6-5---------6p5-------6--5-6-5-----------------------|
G|--7--7-----5-5h7-------5-5h7----------5---7-----------------|
D|--7-------------------------------------7-------------------|
A|--5---------------------------------------------------------|
E|------------------------------------------------------------|

(second time play some variations hereof, the guitar sound differs from the original anyway)


[Verse]

     Dm
Sand eats my feet
    Bb
And my thoughts
     Dm
This date with the sea
        Bb
Is the last


[Chorus]

Gm
Hurry up, I'm going away now
Bb
We have so much to discuss
Gm
Kiss my hands and I'll kiss your eyes
Bb              A       
This date gonna be the last


[Verse]

Dm
In your big eyes
  Bb
I am too small
  Dm
A little girl
                Bb
Who wants some love

    Dm
But I'll become
   Bb
As great as you are
            Dm
And we will be
             Bb
Forever and more


[Chorus]

Gm
Hurry up, I'm going away now
Bb
We have so much to discuss
     Gm
Kiss my hands and I'll kiss your eyes
Bb              A
This date gonna be the last 


[Bridge]

Dm Bb (4x)


[Solo]

e|---------------------------------------------------------------------|
B|----------------------13----------15----13----10----8--5-3s5s3-------|
G|------9s10-9-7-9s10------14------------------------------------------|
D|----7-----------------------15--15----12----10----8----5-3s5s3-------|
A|--8------------------------------------------------------------------|
E|---------------------------------------------------------------------|


e|---------------------------------------------------------------------|
B|---------------------------------------------------------------------|
G|--------------------10----------10-12--12s14-------------------------|
D|--------10----10h12-10----10h12--------------------------------------|
A|--10h12----12--------------------------------------------------------|
E|---------------------------------------------------------------------|


e|----------------------------------------------------------------------|
B|----------------------------------------------------------------------|
G|--14-14-14-12-10----10h12--12b14----10-10-10-----------------------10-|
D|--15----15-------12-----------------10-10-10-12--------10----10h12-10-|
A|-------------------------------------------------10h12----12----------|
E|----------------------------------------------------------------------|


e|-------------------------------------------------------------------------|
B|------------------------------------10-----------------------------------|
G|-----------------10-12b14b12-10---10----12-10-12-10----------10-12-12s14-|
D|--12p10h12p10h12------------------------12----12----12-10-12-------------|
A|-------------------------------------------------------------------------|
E|-------------------------------------------------------------------------|
Tap to rate this tab
# A B C D E F G H I J K L M N O P Q R S T U V W X Y Z