Guitaretab - guitar tabs
Song name
# A B C D E F G H I J K L M N O P Q R S T U V W X Y Z

Relative Ash - Bounce tab

THe other tab of this song is wrong. This is the correct way to play the riffs. All you 
to do is tune down a whole step, learn these riffs, find where they go, and you'll be 
the song in no time. Sometimes the riffs intersect and i found it fun to play the whole
part of Guitar B and the last half of Guitar A when needed.
[ Tab from: http://www.guitaretab.com/r/relative-ash/121781.html ]
Guitar A
D|---------------------------------------------------------------------------|
A|---------------------------------------------------------------------------|
F|---------------------------------------------------------------------------|
C|-2--2----343--------2--2----343--------------------------------------------|
G|---1--1-0-------------1--1-0-----------------------------------------------|
D|---------------------------------------------------------------------------|

Guitar B
D|---------------------------------------------------------------------------|
A|---------------------------------------------------------------------------|
F|---------------------------------------------------------------------------|
C|---3--3-2----3--3-2--2----3--3-2---3--3-2-2--------------------------------|
G|---1--1-0----1--1-0--2----1--1-0---1--1-0-2--------------------------------|
D|---------------------0--------------------0--------------------------------|
Related for Bounce tab
Advertisement will be closed in 10 seconds