Song name
# A B C D E F G H I J K L M N O P Q R S T U V W X Y Z

Release The Sunbird - Best Thing For Me tab

-------------------------------------------------------------------------------
                             Best Thing for Me (6th Ave) - Release the Sunbird
-------------------------------------------------------------------------------
http://releasethesunbird.com/
http://brushfirerecords.com/artists/release-the-sunbird/
Tabbed by: Dudebrah
E-mail: jasonworley12@yahoo.com

Tuning: EADGBE
Capo: 5th Fret

VERSE

"You open the door for me..."
Pick-Down-Up-Pick-Up-Down-Up 
C
e|-----3--3-------3--3--3---------3--3-------3--3--3------------------------|
B|-----1--1-------1--1--1---------1--1-------1--1--1------------------------|
G|-----0--0-------0--0--0---------0--0-------0--0--0------------------------|
D|-----2--2----0--0--0--0---------2--2----0--0--0--0------------------------|
A|--3--3--3-------3--3--3------3--3--3-------3--3--3------------------------|
E|-----0--0-------0--0--0---------0--0-------0--0--0------------------------|

Pick-Down-Up-Pick-Up-Down-Up
G
e|-----3--3-------3--3--3---------3--3-------3--3--3------------------------|
B|-----3--3-------3--3--3---------3--3-------3--3--3------------------------|
G|-----0--0-------0--0--0---------0--0-------0--0--0------------------------|
D|-----0--0-------0--0--0---------0--0-------0--0--0------------------------|
A|-----2--2----0--0--0--0---------2--2----0--0--0--0------------------------|
E|--3--3--3-------3--3--3------3--3--3-------3--3--3------------------------|

Pick-Down-Up-Pick-Up-Down-Up
C
e|-----3--3-------3--3--3---------3--3-------3--3--3------------------------|
B|-----1--1-------1--1--1---------1--1-------1--1--1------------------------|
G|-----0--0-------0--0--0---------0--0-------0--0--0------------------------|
D|-----2--2----0--0--0--0---------2--2----0--0--0--0------------------------|
A|--3--3--3-------3--3--3------3--3--3-------3--3--3------------------------|
E|-----0--0-------0--0--0---------0--0-------0--0--0------------------------|

Pick-Down-Up-Pick-Up-Down-Up
G
e|-----3--3-------3--3--3---------3--3-------3--3--3------------------------|
B|-----3--3-------3--3--3---------3--3-------3--3--3------------------------|
G|-----0--0-------0--0--0---------0--0-------0--0--0------------------------|
D|-----0--0-------0--0--0---------0--0-------0--0--0------------------------|
A|-----2--2----0--0--0--0---------2--2----0--0--0--0------------------------|
E|--3--3--3-------3--3--3------3--3--3-------3--3--3------------------------|

CHORUS

"I do it all for you..."
Am                                           G
e|-----0--0-------3--3--3-------3--3-------3--3--3--------------------------|
B|-----1--1-------1--1--1-------1--1-------3--3--3--------------------------|
G|-----2--2-------0--0--0-------0--0-------0--0--0--------------------------|
D|-----2--2-------2--2--2-------0--0----0--0--0--0--------------------------|
A|--0--0--0----0--0--0--0----3--2--2-------0--0--0--------------------------|
E|-----0--0-------0--0--0-------3--3-------3--3--3--------------------------|

"Oooooh oooooh...."
C
e|-----3--3-------3--3--3---------3--3-------3--3--3------------------------|
B|-----1--1-------1--1--1---------1--1-------1--1--1------------------------|
G|-----0--0-------0--0--0---------0--0-------0--0--0------------------------|
D|-----2--2----0--0--0--0---------2--2----0--0--0--0------------------------|
A|--3--3--3-------3--3--3------3--3--3-------3--3--3------------------------|
E|-----0--0-------0--0--0---------0--0-------0--0--0------------------------|

G
e|-----3--3-------3--3--3---------3--3-------3--3--3------------------------|
B|-----3--3-------3--3--3---------3--3-------3--3--3------------------------|
G|-----0--0-------0--0--0---------0--0-------0--0--0------------------------|
D|-----0--0-------0--0--0---------0--0-------0--0--0------------------------|
A|-----2--2----0--0--0--0---------2--2----0--0--0--0------------------------|
E|--3--3--3-------3--3--3------3--3--3-------3--3--3------------------------|
Tap to rate this tab
 
# A B C D E F G H I J K L M N O P Q R S T U V W X Y Z