Relevant Discord - The Refrain tab

----------------------------------------------------------------------------
			     THE REFRAIN by RELEVANT DISCORD
----------------------------------------------------------------------------
Tuning: Standard

Listen to song for strum patterns and chord repetitions.

RELEVANT DISCORD
www.relevantdiscord.com


VERSES (Rhythm Guitar):
e|---------------------------------------------------------------------------|
B|------------------------4----3---------------------------------------------|
G|--------4----------5----5----5---------------------------------------------|
D|---5----5----------5----5----5---------------------------------------------|
A|---5----5----------3----3----3---------------------------------------------|
E|---3----3------------------------------------------------------------------|

VERSES (Lead Guitar 1) (also played at end of final chorus):
e|---------------------------------------------------------------------------|
B|---------------------------------------------------------------------------|
G|------------12---------------12------------12------------------------------|
D|--------12------12-------12-----12------12----12------12------12-----------|
A|----10---------------10--------------10-----------10------10------10-------|
E|---------------------------------------------------------------------------|

PRE-CHORUS (Rhythm Guitar):
e|---------------------------------------------------------------------------|
B|------------------6-------3------------------------------------------------|
G|---------4--------8-------5------------------------------------------------|
D|----5----5--------8-------5------------------------------------------------|
A|----5----5--------6-------3------------------------------------------------|
E|----3----3-----------------------------------------------------------------|

CHORUS (Rhythm Guitar):
e|---------------------------------------------------------------------------|
B|--------------6------3-----------------------------------------------------|
G|----4---------8------5-----------------------------------------------------|
D|----5---------8------5-----------------------------------------------------|
A|----5---------6------3-----------------------------------------------------|
E|----3----------------------------------------------------------------------|

BRIDGE (Rhythm Guitar):
e|---------------------------------------------------------------------------|
B|---------------------------------------------------------------------------|
G|---------------------------------------------------------------------------|
D|----5-------5------------------------------5--5--5--5----------------------|
A|----5----------5---------------------------5--5--5--5----------------------|
E|----3----3--------3------------------------3--3--3--3----------------------|

HEAVY CHORUS (Rhythm Guitar):
e|---------------------------------------------------------------------------|
B|---------------------------------------------------------------------------|
G|---------------------------------------------------------------------------|
D|----5-------8-------5------------------------------------------------------|
A|----5-------6-------3------------------------------------------------------|
E|----3-------6-------3------------------------------------------------------|

END CHORUS (Lead Guitar 2):
e|---------------------------------------------------------------------------|
B|---------------------------------------------------------------------------|
G|---------------------------------------------------------------------------|
D|---5-5-5-5-5-5-5-5-5-h-7-7-7-7-7-7-7-7-/-8-8-8-8-8-8-8-8-0-3-3-3-3-3-3-3-3-|
A|---------------------------------------------------------------------------|
E|---------------------------------------------------------------------------|

END CHORUS (Lead Guitar 3): (plays final 2 heavy measures)
e|--------------------------------------------------------------------------------------|
B|--------------------------------------------------------------------------------------|
G|--------------------------------------------------------------------------------------|
D|-5-5-5-5-5-5-5-5-5-h-7-7-7-7-7-7-7-7-/-8-8-8-8-8-8-8-8-8-/-10-10-10-10-10-10-10-10----|
A|--------------------------------------------------------------------------------------|
E|--------------------------------------------------------------------------------------|

OUTRO (Rhythm Guitar):
e|---------------------------------------------------------------------------|
B|---------------------------------------------------------------------------|
G|---------------------------------------------------------------------------|
D|----5-------5--------------------------------------------------------------|
A|----5----------5-----------------------------------------------------------|
E|----3----3--------3--------------------------------------------------------|    [played 4 times]


************************************

| /   slide up
| \   slide down
| h   hammer-on
| p   pull-off
| ~   vibrato
| +   harmonic
| x   Mute note
| b   Bend
| pb  Pre-bend
| br  Bend release
| pbr Pre-bend release
| brb Bend release bend

************************************
Tap to rate this tab
 
# A B C D E F G H I J K L M N O P Q R S T U V W X Y Z