Song name
# A B C D E F G H I J K L M N O P Q R S T U V W X Y Z

Relevant Discord - The Refrain tab

-----------------------------------------------------------------------------
THE REFRAIN (2011 Version) by Relevant Discord
-----------------------------------------------------------------------------
Tuning: Full step down

Listen to song for strum patterns and chord repetitions.

RELEVANT DISCORD
www.relevantdiscord.com
www.facebook.com/relevantdiscord


INTRO/VERSES:
(End tag gets dropped as verse progresses)
e|--------------------------------------------------------------------------|
B|--------------------------------------------------------------------------|
G|------------6-------------6----------6------------------------------------|
D|--------6------6-------6----6-----6----6----6----6------------------------|
A|----3---------------3----------3----------3----3---3----------------------|
E|--------------------------------------------------------------------------|


CHORUSES:
(Final chorus is played with a heavier, driving strum pattern)
e|--------------------------------------------------------------------------|
B|--------------------------------------------------------------------------|
G|----3----/-----11--x----8-------------------------------------------------|
D|----x----------x---x----x-------------------------------------------------|
A|----1----/-----9---x----6-------------------------------------------------|
E|----1----/-----9---x----6-------------------------------------------------|


VERSE 2 - Lead Guitar:
e|--------------------------------------------------------------------------|
B|--------------------------------------------------------------------------|
G|--3--/--6--\--5----3--------------3--/--6--/--8--\--7--/--8--/--10--------|
D|-----------------------4--/--6--------------------------------------------|
A|--1--/--4--\--3----1--------------1--/--4--/--6--\--5--/--6--/---8--------|
E|-----------------------2--/--4--------------------------------------------|


BRIDGE:
e|--------------------------------------------------------------------------|
B|--------------------------------------------------------------------------|
G|--------------------------------------------------------------------------|
D|----8--\--6--/--9--\--8--\--6--/--8---------------------------------------|
A|----8--\--6--/--9--\--8--\--6--/--8---------------------------------------|
E|----6--\--4--/--7--\--6--\--4--/--6---------------------------------------|

END CHORUS - Lead Guitar 1:
e|--------------------------------------------------------------------------|
B|--------------------------------------------------------------------------|
G|--7--/--9--/-10--\--5-----------------------------------------------------|
D|--------------------------------------------------------------------------|
A|--5--/--7--/--8--\--3-----------------------------------------------------|
E|--------------------------------------------------------------------------|

END CHORUS - Lead Guitar 2: (plays final 4 heavy measures)
e|--------------------------------------------------------------------------|
B|--------------------------------------------------------------------------|
G|--7--/--8--/--10--\--8----7--/--8--/--10--/--13---------------------------|
D|--------------------------------------------------------------------------|
A|--5--/--6--/---8--\--6----5--/--6--/---8--/--11---------------------------|
E|--------------------------------------------------------------------------|




************************************

| /   slide up
| \   slide down
| h   hammer-on
| p   pull-off
| ~   vibrato
| +   harmonic
| x   Mute note
| b   Bend
| pb  Pre-bend
| br  Bend release
| pbr Pre-bend release
| brb Bend release bend

************************************
Tap to rate this tab
# A B C D E F G H I J K L M N O P Q R S T U V W X Y Z