Song name
# A B C D E F G H I J K L M N O P Q R S T U V W X Y Z

Relevant Discord - The Days Of Deferment tab

-----------------------------------------------------------------------------
THE DAYS OF DEFERMENT by Relevant Discord
-----------------------------------------------------------------------------
Tuning: Full step down

Listen to song for strum patterns and chord repetitions.

RELEVANT DISCORD
www.relevantdiscord.com
www.facebook.com/relevantdiscord

INTRO: Cello bow played against harmonics on guitar strings with reverb, tape-delay, and 
more added for effect.


VERSES/OUTRO:
(Play both full & muffled; for outro, strum last note two more times than normal)
e|--------------------------------------------------------------------------|
B|--------------------------------------------------------------------------|
G|----7----7----7--/--10--x--3----------------------------------------------|
D|----x----x----x-----x-----------------------------------------------------|
A|----5----5----5--/--8---x--1----------------------------------------------|
E|----5----5----5--/--8---x--1----------------------------------------------|


PRE-CHORUS:
e|--------------------------------------------------------------------------|
B|--------------------------------------------------------------------------|
G|--------------------------------------------------------------------------|
D|--------------------------------------------------------------------------|
A|----5--/--8---------------------------------------------------------------|
E|----3--/--6---------------------------------------------------------------|


CHORUSES:
e|--------------------------------------------------------------------------|
B|--------------------------------------------------------------------------|
G|----7--\--3-----x------7--/--10-----x------x------------------------------|
D|----x-----x------------x------x-------------------------------------------|
A|----5--\--1--x--5------5--/---8--x--8--/--10------------------------------|
E|----5--\--1--x--3------5--/---8--x--6--/---8------------------------------|


BRIDGE:
e|--------------------------------------------------------------------------|
B|--------------------------------------------------------------------------|
G|----x-----x------x------------10------------------------------------------|
D|-------------------------------0------------------------------------------|
A|----7--/--8--/--10-------------x------------------------------------------|
E|----5--/--6--/---8-------------x------------------------------------------|

SOLO - Lead Guitar:
e|--------------------------------------------------------------------------|
B|--10-11-13-11-10-6-10-8--10-11-13-11-10-6-10-8-7-8-10-8-7-6-10-8-7--------|
G|--------------------------------------------------------------------------|
D|--------------------------------------------------------------------------|
A|--------------------------------------------------------------------------|
E|--------------------------------------------------------------------------|





************************************

| /   slide up
| \   slide down
| h   hammer-on
| p   pull-off
| ~   vibrato
| +   harmonic
| x   Mute note
| b   Bend
| pb  Pre-bend
| br  Bend release
| pbr Pre-bend release
| brb Bend release bend

************************************
Tap to rate this tab
# A B C D E F G H I J K L M N O P Q R S T U V W X Y Z